Alien Ant Farm

Courage

by:

Pronađi akord!

Ne znaš kako odsvirati neki od akorda pjesmi Courage? Upiši akord u tražilicu i saznaj!

Traženi akord će se prikazati ovdje

Od istog izvođača

Pregledano 1715 puta
Pregledano 1655 puta
Pregledano 1683 puta
Pregledano 1593 puta
Pregledano 1569 puta
Trebaš ritam za ovu pjesmu? Pronađi ga ovdje
Akordi/Tabovi:
Intro:

e----------------------------------------------------
b----------------------------------------------------
g-----66----------------------66---------------------
d--4--66-44-2-4-6-7-6-4-2--4--66-44-2-4-6-7-6-4-2----
a--4--44-44-2-4-6-7-6-4-2--4--44-44-2-4-6-7-6-4-2----
d--4-----44-2-4-6-7-6-4-2--4-----44-2-4-6-7-6-4-2----   

e--------------------------------------------------
b--------------------------------------------------
g-----66--------------------66---------------------
d--4--66-44-2-4-6-7-5-4--3--66-44-2-4-6-7-6-4-2----
a--4--44-44-2-4-6-7-5-4--3--44-44-2-4-6-7-6-4-2----
d--4-----44-2-4-6-7-5-4--3-----44-2-4-6-7-6-4-2---- 

(note: when playing the intro for the second time, the second
guitar plays the following:)
e-----------------
b--7--------------
g----4---4---4----
d------7---7---7--
a-----------------
d-----------------  x2

Verse:
e------0---------0---------------
b--2-3---0---2-3---0---00000000--
g--------------------------------
d--------------------------------
a--------------------------------
d--------------------------------

(this next, different version of the verse isn't played in the
song, but if you think the verse is too boring just mess around
with these power chords)

e----------------
b--7--8--10--5---
g--6--7---9--4---
d--4--5---7--2---
a----------------
d----------------

Chorus:

e-----------------------------------
b-----------------------------------
g-----------------------------------
d--4--6-7--0--9-7--6--4-7--0--2-3---
a--4--6-7--0--9-7--6--4-7--0--2-3---
d--4--6-7--0--9-7--6--4-7--0--2-3---

Bridge(part 1):

e---------------------------------------------------
b---------------------------------------------------
g-----6666------------7777--------------7777--------
d--44-6666-44-xx---44-7777-44-xxxx---66-7777-66-xx--
a--44-4444-44-xx---44-5555-44-xxxx---66-5555-66-xx--
d--44------44-xx---44------44-xxxx---66------66-xx--

e----------------------------------
b----------------------------------
g-----99---------------------------
d--77-99-77-9-11-11-11-9-11-11-11--
a--77-77-77-9-11-11-11-9-11-11-11--
d--77----77-9-11-11-11-9-11-11-11--

Bridge(part 2):

e-------------------------------------------------
b-------------------------------------------------
g---------------6---------------------------------
d--4666-4666--4-6-4-3-2-0-4-6-7-5-4-3-------------
a--4666-4666--4-4-4-3-2-0-4-6-7-5-4-3-------------
d--4666-4666--4---4-3-2-0-4-6-7-5-4-3-------------

Song layout:

Intro x2
Verse
Intro
Chorus x2
Intro
Verse
Intro
Chorus x4
Bridge (part 1) x3
Bridge (part 2)
Intro
Chorus x4

end on e----
       b----
       g----
       d-4\-
       a-4\-
       d-4\-
Komentari
Još nema komentara