Parni Valjak

godine prolaze

by:

Pronađi akord!

Ne znaš kako odsvirati neki od akorda pjesmi godine prolaze? Upiši akord u tražilicu i saznaj!

Traženi akord će se prikazati ovdje

Od istog izvođača

Pregledano 15423 puta
Pregledano 3128 puta
Pregledano 7457 puta
Pregledano 1491 puta
Pregledano 22024 puta
Trebaš ritam za ovu pjesmu? Pronađi ga ovdje
Akordi/Tabovi:
UVOD 
E-------------------------------[-------------------------------0--
H----------------------8----5---[----------------------8-------1---
G--------------5----------------[-------------5--------------------
D---------7-------7-------------[---------7-------7----------------
A-------------------------------[----------------------------------
E-------------------------------[----------------------------------

E----0--------------------------------------------------------------
H-------1------4--------------------9-------10/9--------------------
G----------0-------4--------------------9----------9----------------
D-----------------------4-----------------------------10/9----------
A----------------------------2/7-----------------------------10/7---
E------------------------------------------------------------------5


am
Oko podne budim se
Dm
Polako citam novine
Am                     E
Lose vesti preskacem
                   Am
To mi ne treba

C       G    Dm    Am
Godine     prolaze
C        G             F   E       Am (bas prelaz  CCHAG) 
Proklete   neka idu bez mene

F         G      C
Kad je tako malo
F        G       C(C7)
Malo vremena
F       G      C    Am
Ja ga necu trositi
Dm   E       Am
Kako ne treba

F         G        C
Kad je tako malo
F       G         C(C7)
Malo vremena
F       G      C    Am
Ja ga necu trositi
F            E
Kako ne treba

SOLO
E------5-------------------------/-----------5--------------------------/
H-3/5-------5/3----5-------------/----3/5-----------5/3-----5---------3-/
G-----------------------5----2---/--------------------------------5-----/
D--------------------------------/--------------------------------------/
A--------------------------------/--------------------------------------/
E--------------------------------/--------------------------------------/

E-------------------------3--5-------------------------5--------0 -------------/
H5-5-5-5---3-------------------5---5----3-------3/5----3-------1-----3-3-3-1---/
G------------------5----------------------------5---------5-----------2-------2/
D------------------------------------------------------------------------------/
A------------------------------------------------------------------------------/
E------------------------------------------------------------------------------/

E------5-----------8-------5-------------------------------------------------
H-3/5------8/10-------10------8---5--------------5-5-5-5/3-------------------
G--------------------------------------7-5---7--------------7/5-5---2-2---7-5
D----------------------------------------------------------------------------
A----------------------------------------------------------------------------
E----------------------------------------------------------------------------

E-----------------------------/
H-----------------------------/
G-------5---7-7-5-------------/
D---7--------------------7-7--/
A-----------------------------/
E-----------------------------/
Komentari

DjukaTocak kaže:

sta znaci ovo / 10/7

09-02-2010 15:14

kide.maestro kaže:

To znaci da okines zicu na 10om polju i onda prevuces prst na 7 polje dok se jos uvijek cuje zvuk a zatim drzis prst na 7om polju dok zvuk ne prestane

18-12-2010 14:28