Parni Valjak

Petak

by: nbedeko2

Pronađi akord!

Ne znaš kako odsvirati neki od akorda pjesmi Petak? Upiši akord u tražilicu i saznaj!

Traženi akord će se prikazati ovdje

Od istog izvođača

Pregledano 11924 puta
Pregledano 27030 puta
Pregledano 17372 puta
Pregledano 2266 puta
Pregledano 71913 puta
Trebaš ritam za ovu pjesmu? Pronađi ga ovdje
Akordi/Tabovi:
Verse 1:

A                     D
Ponedjeljak mi ide na zivce
  A          E
dolazi bez pitanja.
  A                    D
Cesto dolazi, a sporo prolazi
            E
k'o gladna godina.   [sea]X (riff)[/sea]         
A                     D
Ni utorak mi nije po volji
  A          E
k'o opera je dosadan.
  A                    D
Srijedu odvalim, cetvrtak prezivim
            E           
jer petak dolazi.    [red]Y (riff)[/red]             


    Ref.
     A        D
    Petak je dan
     A            E
    petak je moj dan.
               A                   D
    Kad nocu zaglavim, kasno se probudim,
                E             
    a tek je subota, pa jos i nedjelja.


Verse 2:
  A                     D
Mrzim kako prolazi vrijeme
  A           E
pred ocima mi nestaje.
  A                    D
Glavu okrenem da nesto popijem
            E
a ono pobijegne.   [sea]X (riff)[/sea]               
  A                     D
Uglavnom mi stvara probleme
  A           E
osim kad je suncano.
  A              D
A meni je kao i obicno
            E
pretezno oblacno.   [red]Y (riff)[/red]           


    Ref.
     A        D
    Petak je dan
     A            E
    petak je moj dan.
               A                   D
    Kad nocu zaglavim,kasno se probudim,
                E             
    a tek je subota,pa jos i nedjelja.


Uvod (poslije klavijatura ide gitara s cijelim bendom):
Akordi/Tabovi:
E---------------------------------------------------
B---------------------------------------------------
G---9-7-6-------------6-------9-7-6-----------------
D-7-------9-7-9-9-7-9---9-7-7-------9-7-9-9-7-9~~---
A---------------------------------------------------
E---------------------------------------------------

E---------------------------------------------------
B---------------------------------------------------
G-----9-7-6-------------6-------------9-9-9-9-9-9-9-
D-7-7-------9-7-9-9-7-9---9-7-7---7-9---------------
A-------------------------------9-------------------
E---------------------------------------------------



X----> Svira se onaj riff u kitici. Poslušajte pa bute čuli:dirol
Riff:
Akordi/Tabovi:
E-------------------------
B-------------------------
G-------------------------
D-------2~~-2-0-------2~~-
A-4-2-4---------4-0-2-----
E-------------------------


Y-----> Svira se onaj riff na kraju kitice.

Riff na kraju kitice:

Akordi/Tabovi:
E-------------------
B-------------------
G-------------------
D---2-0---------2~~-
A-4-----4-2-0-2-----
E-------------------
Komentari

DZIL kaže:

ovo jw extra

29-04-2010 22:33

dadoo kaže:

svaka čast

30-04-2010 22:57