Nedeljko Bajić Baja

Suvise Me Podsećas Na Nju

by: Princ

Pronađi akord!

Ne znaš kako odsvirati neki od akorda pjesmi Suvise Me Podsećas Na Nju? Upiši akord u tražilicu i saznaj!

Traženi akord će se prikazati ovdje

Od istog izvođača

Pregledano 3212 puta
Pregledano 3088 puta
Pregledano 21928 puta
Pregledano 6201 puta
Pregledano 3380 puta
Trebaš ritam za ovu pjesmu? Pronađi ga ovdje
Akordi/Tabovi:
Nedeljko Bajic Baja-Suvise me podsecas na nju
Solo:
Fm                                    D#             Fm
-------------------------------------------------------
---------------------------------------------8--8-------
8-10-10--10--10-8--8-10-10--10--10-8--8-8-8-------10-10
-------------------------------------------------------
-------------------------------------------------------
-------------------------------------------------------
A#m            Fm             D#            Fm
6-9-9--9--8-6--6-8-8--8--6------6-6-----------
---------------------------9--9------8--6---6-
------------------------------------------8---
----------------------------------------------
----------------------------------------------
----------------------------------------------
1STROFA:2X
Fm
Ti u sebi imas nesto
D#          G#
sto me podseca
A#m
kako me je ljubila
D#          Fm    D#   Fm   D#
ljubav najvecaa   aaa  aaa

REFREN:2x
Fm
Nemoj vise da me ljubis
D#         Fm
i da budes tu
G#         A#m
suvise me, suvise
D#          Fm
podsecas na nju
2STROFA:2X
Fm
Njene usne ljubile me
D#        G#
kao tvoje sad
A#m
eh sto vise nisam
D#        Fm  D#  Fm   D#
kao nekad mlaaaaaaad

REFREN:2x
3STROFA:2X
Fm
Skloni svoje nezne ruke
D#          G#
s mojih ramena
A#m
izvini sto vracam
D#          Fm     D#  Fm   D#
prosla vremenaaa   aaa aaa
REFREN:2x
Kraj:D#,Fm.
Komentari
Još nema komentara