Irina I Vi

Sad se brise i blijedi

by:

Pronađi akord!

Ne znaš kako odsvirati neki od akorda pjesmi Sad se brise i blijedi? Upiši akord u tražilicu i saznaj!

Traženi akord će se prikazati ovdje

Od istog izvođača

Pregledano 2863 puta
Pregledano 17791 puta
Pregledano 5635 puta
Pregledano 8945 puta
Trebaš ritam za ovu pjesmu? Pronađi ga ovdje
Akordi/Tabovi:
Uvodni solo:
                      Em                        D                     A
e-----------------------------------------------------------------------------------
H-----------------------12--10--12~12------ 10--10~~-----------10-------------------
G-9h11h12--11--9----9~~---------------11h12----------9--11--12----11--9----9h10p9~~-
D----------------12-----------------------------------------------------12----------
A ----------------------------------------------------------------------------------
E-----------------------------------------------------------------------------------


Em              D           Em     G--D
Izvini sto sam usla bez kucanja
Em          D        Em            G--D
To je samo stara navika
Em        D                 Em     G--D
Zao mi je sto te vidim umornog
Em      D             Em           G--D
Neispavanog nepocesljanog

e---------------------------------
H---------------------------------
G---12p11-12---14---11------9~~~--        2x
D---------------------------------
A---------------------------------
E---------------------------------

Svako dobro u sebi krije mrvu zla
Ja lose hocu sada da ubijem
Bijele rijeci, stari zidovi
Jos cvrsto stoje izmedju nas

Pre REF
Em             D       A          Em
Ne zovi me kad nisam  bila za tebe
             D       A
I nezali za onim sto proslo je
Em             D           A
Bili smo mladi da bi prastali


Refren: (uvodna dionica prati refren)

Em              D               A          Em
Sad se brise i blijedi sve sto volim i sto vrijedi
Em             D      A              Em
Dva puta isti san se nikada ne ponavlja
Em             D               A             Em
Sad se brise i blijedi sve sto volim i sto vrijedi
Em            D        A           Em
Dva puta isti san se nikada ne ponavlja


e-----------------------------------------------------------------------------------
H------8------10-------12-------14-------15----14\--------14-----12----10—12--10~~--
G--6/9----9/11----11/12----12/14----14/16----14------12/14-----14----12-------------
D-----------------------------------------------------------------------------------
A-----------------------------------------------------------------------------------
E-----------------------------------------------------------------------------------


[b]Ovako nekako odprilike[/b]
Komentari

Sajko5 kaže:

Zivio ti meni sto godina!

05-01-2013 19:02