Accept

I'm A Rebel Tab

by:

Pronađi akord!

Ne znaš kako odsvirati neki od akorda pjesmi I'm A Rebel Tab? Upiši akord u tražilicu i saznaj!

Traženi akord će se prikazati ovdje

Od istog izvođača

Pregledano 1029 puta
Pregledano 1775 puta
Pregledano 1698 puta
Pregledano 1097 puta
Pregledano 941 puta
Trebaš ritam za ovu pjesmu? Pronađi ga ovdje
Akordi/Tabovi:
Tuning: standard tuning

| h  hammer-on
| p  pull-off
| ~  vibrato
| b  bend
| .  mute note
| ps pick scrape


Play with distortion

Riff 1: 2 times
e|--------------------------------------------------------------------------|
B|--------------------------------------------------------------------------|
G|-------------------2-2----------------------------------------------------|
D|--9-9-----4-4------2-2-------4-4-4----------------------------------------|
A|--7-7-----2-2------0-0-------2-2-2----------------------------------------|
E|--------------------------------------------------------------------------|


Riff 2 (15"): play first part 3 times, then the rest
e|-----------------|--------------------------------------------------------|
B|-----------------|--------------------------------------------------------|
G|-----------------|--------------------------------------------------------|
D|---9---------9---|---6-6-6-6-6-6-6---4-4-4--------------------------------|
A|---7---------9---|---6-6-6-6-6-6-6---4-4-4--------------------------------|
E|-------------7---|---4-4-4-4-4-4-4---2-2-2--------------------------------|


Riff 3 (31"):
e|--------------------------------------------------------------------------|
B|--------------------------------------------------------------------------|
G|-----------2-2-2------------------------------2-2-2-----------------------|
D|---9-9-9---2-2-2---9-9-9---9-9-9-9----9-9-9---2-2-2---6-6-6-6-6-----------|
A|---7-7-7---0-0-0---7-7-7---9-9-9-9----7-7-7---0-0-0---6-6-6-6-6-----------|
E|---------------------------7-7-7-7--------------------4-4-4-4-4-----------|


Riff 2 (44")

Riff 3' (1'01"): slightly different than Riff 3
e|--------------------------------------------------------------------------|
B|--------------------------------------------------------------------------|
G|-----------2-2-2------------------------------2-2-2-----------------------|
D|---9-9-9---2-2-2---9-9-9---9-9-9-9----9-9-9---2-2-2---9-9-9---9-9-9-9-----|
A|---7-7-7---0-0-0---7-7-7---9-9-9-9----7-7-7---0-0-0---7-7-7---9-9-9-9-----|
E|---------------------------7-7-7-7----------------------------7-7-7-7-----|

e|--------------------------------------------------------------------------|
B|--------------------------------------------------------------------------|
G|-----------2-2-2----------------------------------------------------------|
D|---9-9-9---2-2-2---6-6-6-6-6----------------------------------------------|
A|---7-7-7---0-0-0---6-6-6-6-6----------------------------------------------|
E|-------------------4-4-4-4-4----------------------------------------------|


Solo 1 (1'20"): play Riff 1 as background (2 times)


Riff 2' (1'33"): note the different ending! It's possible that you have to
                 palm mute the second part. I'm not quite sure about that,
                 but the chords are correct!
e|--------------|-----------------------------------------------------------|
B|--------------|-----------------------------------------------------------|
G|--------------|---------------------------------------------------------2-|
D|---9------9---|--6-6-6-6-6-6---4-4-4-4-4-4---2-2-2-2-2-2---4-4-4-4-4--4-2-|
A|---7------9---|--6-6-6-6-6-6---4-4-4-4-4-4---2-2-2-2-2-2---2-2-2-2-2--2-0-|
E|----------7---|--4-4-4-4-4-4---2-2-2-2-2-2---0-0-0-0-0-0------------------|


Riff 3" (1'56"): again, slightly different. Play 3 times with different end
e|--------------------------------------------------------------------------|
B|--------------------------------------------------------------------------|
G|-----------2-2-2------------------------------2-2-2-----------------------|
D|---9-9-9---2-2-2---9-9-9---9-9-9-9----9-9-9---2-2-2---9-9-9---9-9-9-9-----|
A|---7-7-7---0-0-0---7-7-7---9-9-9-9----7-7-7---0-0-0---7-7-7---9-9-9-9-----|
E|---------------------------7-7-7-7----------------------------7-7-7-7-----|

e|--------------------------------------------------------------------------|
B|--------------------------------------------------------------------------|
G|-----------2-2-2------------------------------2-2-2-----------------------|
D|---9-9-9---2-2-2---9-9-9---9-9-9-9----9-9-9---2-2-2---6-6-6-6-6-6---------|
A|---7-7-7---0-0-0---7-7-7---9-9-9-9----7-7-7---0-0-0---6-6-6-6-6-6---------|
E|---------------------------7-7-7-7--------------------4-4-4-4-4-4---------|


first time end
e|--------------------------------------------------------------------------|
B|--------------------------------------------------------------------------|
G|-----------------------------------------------2--------------------------|
D|---4-4-4-4-4-4---2-2-2-2-2-2---4-4-4-4-4-4--4--2--------------------------|
A|---4-4-4-4-4-4---2-2-2-2-2-2---2-2-2-2-2-2--2--0--------------------------|
E|---2-2-2-2-2-2---0-0-0-0-0-0----------------------------------------------|


second time end
e|--------------------------------------------------------------------------|
B|--------------------------------------------------------------------------|
G|-----------------2--------------------------------------------------------|
D|---4-4-4-4-4-4---2---2---------------6--4---------------------------------|
A|---2-2-2-2-2-2---0---2---------------6--4---------------------------------|
E|---------------------0---------------4--2---------------------------------|


third time end
e|--------------------------------------------------------------------------|
B|--------------------------------------------------------------------------|
G|---------------------------------------------2----------------------------|
D|---4-4-4-4-4-4---2-2-2-2-2-2---4-4-4-4-4-4---2---2------------------------|
A|---4-4-4-4-4-4---2-2-2-2-2-2---2-2-2-2-2-2---0---2------------------------|
E|---2-2-2-2-2-2---0-0-0-0-0-0---------------------0------------------------|
Komentari
Još nema komentara