Gužva u 16-ercu

Vodja Plemena

by:

Pronađi akord!

Ne znaš kako odsvirati neki od akorda pjesmi Vodja Plemena? Upiši akord u tražilicu i saznaj!

Traženi akord će se prikazati ovdje

Od istog izvođača

Pregledano 5921 puta
Pregledano 6393 puta
Pregledano 3870 puta
Pregledano 3014 puta
Pregledano 7296 puta
Trebaš ritam za ovu pjesmu? Pronađi ga ovdje
Akordi/Tabovi:
[b]Intro: 2x[/b]
------------------------------------------------------------------
------------------------------------------------------------------
------------------------------------------------------------------
--------------------------2p--------------------------------------
--0-0-0-0-0-0-2-3------------3-2--------0-0-0-0-0-0-2-3-----------
------------------1-1-1-1-------------------------------1-1-1-1---

---------------------------------------------------------
---------------------------------------------------------
---------------------------------------------------------
--2p-2p-2p-2p-----------------2p-2p-2p-2p----------------
--------------3p2-3p2-3p2-3p2-------------3-5-3-2-3-5-3-2
---------------------------------------------------------  2x

Am                     F
Ima jedno mjesto pored kojeg prodjem cesto,
      Am                         F
I kud god da krenem uvijek je uz put.
Am                     F
I po noci i po danu, bilo kad na kalendaru,
Am                   F
nikada ga ne zaobidjem.

Am                     F
I sto bilo god na putu ja cu poci svoju ruku,
Am                     F
vatra siklja mi iz ochiju.
Am                        F
I kad krenem nema stanke, zivcane su niti tanke,
Am                  F
pokusaj i razuvjeri me.

F
Razloga nemam
G
al opet sam spreman,
  Am             F       C
i znaj, da nikad ne uzhivam,
        G         Am
ja samo to zamisljam,
       F          C
da sam izvan vremena,
       G          Am
da sam vodja plemena.


[b]i sad sve ponovo[/b]
****
Komentari
Još nema komentara