Accept

Helldriver

by:

Pronađi akord!

Ne znaš kako odsvirati neki od akorda pjesmi Helldriver? Upiši akord u tražilicu i saznaj!

Traženi akord će se prikazati ovdje

Od istog izvođača

Pregledano 1578 puta
Pregledano 963 puta
Pregledano 1803 puta
Pregledano 1732 puta
Pregledano 1212 puta
Trebaš ritam za ovu pjesmu? Pronađi ga ovdje
Akordi/Tabovi:
.  - palm mute           /  - slide up to
\  - slide down to       ~  - vibrato
h  - hammer on           b  - Bend
p  - pull off            Suffixes for bend
t  - tap                 f  - full bend    h - half bend
ph - pinched harmonic    q  - quarter bend t - tap bend
*  - see comment         ^  - Hold bend    r release bend
x  - Stuccatto           ~  - vibrato bend
,  - slight palm mute    () - ghost note, sustained note
"  - tremolo note        <> - harmonic
pb - pre bend

Tuning E A D G B E

|-------|
|-------|
|-------|
|-------|
|-9\----|
|-9\----|

Main Riff
                       ~~
|----------------------------|
|----------------------------|
|----------------------------|
|---------------5p3----------|
|--------1----------5-3--5-\-|
|-1-3-x3---3-x3--------------|



Chorus
      PM       PM     PM      PM       PM      PM     PM      PM       
|-------------------------------------------------------------------|
|-------------------------------------------------------------------|
|-------------------------------------------------------------------|
|-3-3-----3-3-----3-3-----3-3-----5-5-----5-5-----8-8-----8-8-----\-|
|-1-1-1-1-1-1-1-1-1-1-1-1-1-1-1-1-3-3-3-3-3-3-3-3-6-6-6-6-6-6-6-6-\-|
|-------------------------------------------------------------------|

      PM       PM     PM      PM       PM      PM             
|-------------------------------------------------------------------|
|-------------------------------------------------------------------|
|-------------------------------------------------------------------|
|-3-3-----3-3-----3-3-----3-3-----5-5-----5-5-----8--8----(8)-------|
|-1-1-1-1-1-1-1-1-1-1-1-1-1-1-1-1-3-3-3-3-3-3-3-3-6--6----(6)-------|
|-------------------------------------------------------------------|

Main Riff x 8
Chorus
Main Riff x 6
Chorus
Main Riff x 4
Chorus
Main Riff x 6


      PM       PM     PM      PM       PM      PM     PM      PM       
|-------------------------------------------------------------------|
|-------------------------------------------------------------------|
|-------------------------------------------------------------------|
|-3-3-----3-3-----3-3-----3-3-----5-5-----5-5-----8-8-----8-8-----\-|
|-1-1-1-1-1-1-1-1-1-1-1-1-1-1-1-1-3-3-3-3-3-3-3-3-6-6-6-6-6-6-6-6-\-|
|-------------------------------------------------------------------|Rpt 3 x


      PM       PM     PM      PM       PM      PM             
|-------------------------------------------------------------------|
|-------------------------------------------------------------------|
|-------------------------------------------------------------------|
|-3-3-----3-3-----3-3-----3-3-----5-5-----5-5-----8--8----(8)-------|
|-1-1-1-1-1-1-1-1-1-1-1-1-1-1-1-1-3-3-3-3-3-3-3-3-6--6----(6)-------|
|-------------------------------------------------------------------|

Main Riff x 3

                  h   
|---------------------------|
|---------------------------|
|---------------------------|
|-------------------3-------|
|--------1------3-5---5-5\--|
|-1-3-x3---3-x3---------3\--|
Komentari
Još nema komentara