Hari Mata Hari

Volio bih da te ne volim

by: Princ

Pronađi akord!

Ne znaš kako odsvirati neki od akorda pjesmi Volio bih da te ne volim? Upiši akord u tražilicu i saznaj!

Traženi akord će se prikazati ovdje

Od istog izvođača

Pregledano 7839 puta
Pregledano 34146 puta
Pregledano 37054 puta
Pregledano 8669 puta
Pregledano 7874 puta
Trebaš ritam za ovu pjesmu? Pronađi ga ovdje
Akordi/Tabovi:
Hari Mata Hari - Volio bih da te ne volim

Solo:1
Em           H                    Em Em           Am        H        Em
--------------------------------------------------10-8-----------------
----------12-12-11-------------10-8------------12------------------8---
--9-11-12----------11-9-8-9-11---------9-11-12---------11-9-8-9-11---9-
9------------------------------------9---------------------------------
-----------------------------------------------------------------------
-----------------------------------------------------------------------
Solo:2
Em           Am       Em     Am       Em     H        Em )
---------------------------------------------------------)
------12--12-13-15-13-12--12-13-15-13-12-----------------)
---12-------------------------------------12-11-12-11----)2x
14----------------------------------------------------14-)
---------------------------------------------------------)
---------------------------------------------------------)
STROFA:1
Em     C      D        Em
Dan ko san, a noci bez sna
Em      C     D     Em
usne na usne, ti i ja
Em            Am       Em
sve sto imam, tebi dugujem
  Am         Em    H         Em
a nista, sem duse, da ti darujem

Solo:2
STROFA:2
Em         C         D       Em
Ljubav k'o glad, k'o sudbine mac
Em   C      D        Em
ti i ja, ko dijete i plac
Em            Am        Em
ako grijeh je zivot cijeli
Am            Em       H          Em
nas grijeh je cist, ko snijeg bijeli
Em            Am        Em
ako grijeh je zivot cijeli
Am            G        F#         H7
nas grijeh je cist, ko snijeg bijeli

REFREN:
G         D     Am   Em
Volio bih da te ne volim
Am       Em    H    Em
ako odes da te prebolim
G         D     Am   Em
volio bih da te ne volim
Am         Em  H     Em
da ti crne oci ne pamtim

Solo:3
Fm             C                      Fm Fm             A#m        C        Fm
-------------------------------------------------------11-9-------------------
------------13-13-12---------------11-9-------------13--------------------9---
---10-12-13----------12-10-9-10-12---------10-12-13---------12-10-9-10-12---10
10--------------------------------------10------------------------------------
------------------------------------------------------------------------------
------------------------------------------------------------------------------
Solo:4
Fm           A#m      Fm     A#m      Fm     C        Fm
---------------------------------------------------------
------13--13-14-16-14-13--13-14-16-14-13-----------------
---13-------------------------------------13-12-13-12----
15----------------------------------------------------15-
---------------------------------------------------------
---------------------------------------------------------
STROFA:2

Fm         C#        D#      Fm
Ljubav k'o glad, k'o sudbine mac
Fm   C#     D#       Fm
ti i ja, ko dijete i plac
Fm            A#m       Fm
ako grijeh je zivot cijeli
A#m           Fm       C          Fm
nas grijeh je cist, ko snijeg bijeli
Fm            A#m       Fm
ako grijeh je zivot cijeli
A#m           G#       G          C
nas grijeh je cist, ko snijeg bijeli

REFREN:2x
G#        D#    A#m  Fm
Volio bih da te ne volim
A#m      Fm    C    Fm
ako odes da te prebolim
G#        D#    A#m  Fm
volio bih da te ne volim
A#m        Fm  C     Fm
da ti crne oci ne pamtim

G#        D#
Volio bih daaa

REFREN:2X
A         E     Hm   F#m
Volio bih da te ne volim
Hm       F#m    C#  F#m
ako odes da te prebolim
A         E     Hm   F#m
volio bih da te ne volim
Hm         F#m C#     F#m
da ti crne oci ne pamtim
Komentari

Princ kaže:

Evo jos onaj prelaz izmedju prvog i drugog sola s tim da morate svirati solo od pocetka da bi se ovaj dio uklopio
Em
------------------
------10-12-13-12-
11-12-------------
------------------
------------------
------------------

13-10-2008 10:50