Gužva u 16-ercu

Brigade

by: ywo 96

Pronađi akord!

Ne znaš kako odsvirati neki od akorda pjesmi Brigade? Upiši akord u tražilicu i saznaj!

Traženi akord će se prikazati ovdje

Od istog izvođača

Pregledano 3680 puta
Pregledano 7281 puta
Pregledano 5902 puta
Pregledano 1701 puta
Pregledano 6374 puta
Trebaš ritam za ovu pjesmu? Pronađi ga ovdje
Akordi/Tabovi:
Am C E Am X2

e|---------------------------------------------------------------|
B|---------------------------------------------------------------|
G|------------------------------------------------2-2-2-2-2------|
D|---------------------0-2-0-------------------------------------|
A|--0--0--0-2-0--3--3-------------2--2--2-3-2--0-----------------|
E|---------------------------------------------------------------|

e|---------------------------------------------------------------|
B|---------------------------------------------------------------|
G|---------------------------------------------------------------|
D|---------------------0-2-0-------------------------------------|
A|--0--0--0-2-0--3--3-------------2--2--2-3-2--0-----------------|
E|---------------------------------------------------------------|

       Am             C
I fale ti plameni trgovi
         E
U grlu motori
              F
Svi u jednoj paroli
G      Am
I zuljevi

Na rukama
Zakucan cekas hipnozu
Sjedis ispred
Televizora

A gdje su sad puni hodnici
Domaci proizvodi
Slova od stiropora
Na stanici

I livade za spavanje
Englezi , Svabe
Razvedene obale
Bogatstva prirode


Ref:
        C
Hej haj brigade
  Am        G
I radne akcije
F           C             x 2
Zinuo si ko dijete
Am            G
Ispred trgovine


I fale ti plameni trgovi
U grlu motori
Svi u jednoj paroli...

e|-----------------------------------------------------0--------------|
B|-----------0--1--3--1--3--1--------------0--1------3---3--1---------|
G|--2--0--2--------------------2--2--0--2----------------------2------|X2
Komentari

st_jimmy kaže:

02-07-2009 14:09

globbe kaže:

kako refren odsvirati prvi put kad pocne ga pjevati

30-03-2013 01:21