Parni Valjak

Nemirno More

by: damir_

Pronađi akord!

Ne znaš kako odsvirati neki od akorda pjesmi Nemirno More? Upiši akord u tražilicu i saznaj!

Traženi akord će se prikazati ovdje

Od istog izvođača

Pregledano 7744 puta
Pregledano 19080 puta
Pregledano 7737 puta
Pregledano 14807 puta
Pregledano 27383 puta
Trebaš ritam za ovu pjesmu? Pronađi ga ovdje
Akordi/Tabovi:
Intro:
                     Am                 Dm
E|-------------------------------------------------------------------------
H|----------5--------------------------------------------------------------
G|------5-7---5-4(b)---------5--7h9p7--7~---7b8-7-5-7~p5-------------------
D|--5s7-------------7~----5s7----------------------------7-----------------
A|-------------------------------------------------------------------------
E|-------------------------------------------------------------------------
                 E7                                  Am                E7+9
E|-------------------------------------------------------------------------
H|--------------------------------------------------------/10-10--8-----8--
G|-----5-7--(pb)8r7-p5----5-------------------------------/9--9---7--(7)---
D|--6s7-----------------7---7-5--------------------------------------(6)---
A|-------------------------------5h7(s)3h5p3h5~---3-------------------7----
E|--------------------------------------------------5----------------------


E          Am
Oprosti mi molim te
                 Dm
sto nisam to sto zelis,
              E
ti znas da ja volim te
              Am   E7
na neki nacin svoj.

Oprosti zbog patetike
to je zbog romantike,
umjesto svijeca i cvijeca
uz veceru...

Dm
Znam da je tesko trajati sa mnom
Am
ima me, nema me...
Dm
pozelim nekad stati na loptu
    E
al’ bojim se...

Am     Dm  G          C
Ja sam ja, ne drzi me mjesto
Dm          F          E
mojom dusom pusu vjetrovi.
Am     Dm  G           C
Ja sam ja, k’o nemirno moree
Dm          F        E
mrzim luke, mrzim obale.


Oprosti ako zvucim
kao da sam nesretan
ti znas da sam oduvijek
s rijecima nespretan.

Dani se slazu u godine duge,
zima je pred vratima.
Nista nam dobro ne donosi sutra,
osim nadanja...

Ja sam ja...
Komentari
Još nema komentara