Avril Lavigne

Tomorrow

by: Guitar360

Pronađi akord!

Ne znaš kako odsvirati neki od akorda pjesmi Tomorrow? Upiši akord u tražilicu i saznaj!

Traženi akord će se prikazati ovdje

Od istog izvođača

Pregledano 5152 puta
Pregledano 3091 puta
Pregledano 3311 puta
Pregledano 6171 puta
Pregledano 2632 puta
Trebaš ritam za ovu pjesmu? Pronađi ga ovdje
Akordi/Tabovi:
Tomorrow - Avril Lavigne

Capo 2

Intro/Verse:

    G   Em7              Cadd9
e|--3-3---3-3-3-3--3-3-3---3-3--3-3--x-x--3-3--3-3---------------------------|
B|--3-3---3-3-3-3--3-3-3---3-3--3-3--x-x--3-3--3-3---------------------------|
G|--0-0---0-0-0-0--0-0-0---0-0--0-0--x-x--0-0--0-0---------------------------|
D|--0-0---2-2-2-2--2-2-2---2-2--2-2--x-x--2-2--2-2---------------------------|
A|--2-2---2-2-2-2--2-2-2---3-3--3-3--x-x--3-3--3-3---------------------------|
E|--3-3---0-0-0-0--0-0-0---x-x--x-x--x-x--x-x--x-x---------------------------|

Chorus:

    Em7                     Bm
e|--0-0--0-0-0-0-0-0--0-0---2-2--2-2-2-2-2-2--2-2----------------------------|
B|--0-0--0-0-0-0-0-0--0-0---3-3--3-3-3-3-3-3--3-3----------------------------|
G|--0-0--0-0-0-0-0-0--0-0---4-4--4-4-4-4-4-4--4-4----------------------------|
D|--2-2--2-2-2-2-2-2--2-2---4-4--4-4-4-4-4-4--4-4----------------------------|
A|--2-2--2-2-2-2-2-2--2-2---2-2--2-2-2-2-2-2--2-2----------------------------|
E|--0-0--0-0-0-0-0-0--0-0---x-x--x-x-x-x-x-x--x-x----------------------------|

    Cadd9                   Bm
e|--3-3--3-3-3-3-3-3--3-3---2-2--2-2-2-2-2-2--2-2---------------------------|
B|--3-3--3-3-3-3-3-3--3-3---3-3--3-3-3-3-3-3--3-3---------------------------|
G|--0-0--0-0-0-0-0-0--0-0---4-4--4-4-4-4-4-4--4-4---------------------------|
D|--2-2--2-2-2-2-2-2--2-2---4-4--4-4-4-4-4-4--4-4---------------------------|
A|--3-3--3-3-3-3-3-3--3-3---2-2--2-2-2-2-2-2--2-2---------------------------|
E|--x-x--x-x-x-x-x-x--x-x---x-x--x-x-x-x-x-x--x-x---------------------------|
Komentari
Još nema komentara