Osvajači

Da Te Milujem

by: Princ

Pronađi akord!

Ne znaš kako odsvirati neki od akorda pjesmi Da Te Milujem? Upiši akord u tražilicu i saznaj!

Traženi akord će se prikazati ovdje

Od istog izvođača

Pregledano 14919 puta
Pregledano 3053 puta
Pregledano 2277 puta
Pregledano 49722 puta
Pregledano 7109 puta
Trebaš ritam za ovu pjesmu? Pronađi ga ovdje
Akordi/Tabovi:
OSVAJACI:da te milujem

1STROFA
Cm   A#    D#      A#          Cm
Noc, budan sam dok mirno spava grad
Cm   A#          D#   A#         Cm
kroz prozor svoj prah posipa nam san
Cm  A#       D#      A#        Cm
oh, kada bih znao da cujes moj glas
Cm  A#     D#   A#   Cm  G#     Cm
sve otkrio bih, znao bih gde si sad
2STROFA
      G#          A#
Da li ljubav koju znam
     G#         Cm
mogu muzikom da dam
     A#        G#
ovim notama da snem
Cm    A#    G#   A#
da te milujem 3X
SOLO:
Cm   PM    D#            A#      G#       Cm
---------------------------------------------------
-----------------------8---------------------------
-----------8-7----8-10---10-8-10-8-7-8-10-5/7------
8-10-10-10-----10-----------------------------10-10
---------------------------------------------------
---------------------------------------------------
D#          G#        A#           Cm A#     G 
---------------------------------------------------
----------8----------------------------------------
8/10-8-10---7/8-7-8-10-5/7----7-8-7----------------
--------------------------10-------10-8-10-8----10-8
---------------------------------------------10----
---------------------------------------------------
     drugi put sve isto samo sto na kraju ide:
              Cm  A#  G#  A#  G
-15\7-|---------------------------
------|---------------------------
------|-7-8-7---------------------
------|-------10--12--13--15--17--
------|---------------------------
------|---------------------------
OVAJ SOLO SE SVIRA SA DVE GITARE.DRUGA GITARA SVIRA
ISTO,SAMO STO POMJERIS ZA 12 POLJA UNAZAD DAKLE AKO
OVDJE POCINJE SA -8-10-10-10- NA D ZICI,NA DRUGOJ CE
GITARI POCINJATI SA -6-8-8-8-NA E3 ZICI.Ma moze se
svirati i na jednoj gitari ali onako je originalnije.
kosa crta je:dakle odsviras 5 i povuces prst do 7 ali
ne okines sedmicu ta se tehnika zove slide / .
3STROFA
Cm   A#       G#   A#          Cm
Svoj najlepsi stih hteo bih da dam
Cm   A#         D#     A#       Cm
tvom bezbriznom snu da ljubi te svu noc
Cm  A#      D#     A#     Cm
ne, niko od nas ne ostaje sam
Cm  A#      D#  A#    Cm  G#   Cm
sve vratice nam cudna moc zvukova
2STROFA
SOLO:
Ref:3x
Cm
Doci cu ti ja u san
D#         A#
svaku noc, svaki dan
G#         Cm
samo da te milujem
D#           G#         A#        Cm
da ti ljubim snene oci, da te milujem
Komentari
Još nema komentara