Bijelo Dugme

Glavni Junak Jedne Knjige(tema)

by: faLLen_angel

Pronađi akord!

Ne znaš kako odsvirati neki od akorda pjesmi Glavni Junak Jedne Knjige(tema)? Upiši akord u tražilicu i saznaj!

Traženi akord će se prikazati ovdje

Od istog izvođača

Pregledano 18726 puta
Pregledano 4521 puta
Pregledano 4979 puta
Pregledano 36090 puta
Pregledano 25923 puta
Trebaš ritam za ovu pjesmu? Pronađi ga ovdje
Akordi/Tabovi:
               glavni junak jedne knjige

E||-------------------------------------------------------------|
B||-------------------------------------------------------------|
G||-------------------------------------------------------------|
D||--/7----------10-9-------------10--9------10--9------10------|
A||-------7-7-7-------12-11-12-----------12---------12------12--|
E||-------------------------------------------------------------|
                                                                 
E||------------------------------------------------------------||
B||------------------------------------------------------------||
G||------------------------------------------------------------||
D||--7--7---------10-9-----------10--9------10--9------10------||
A||--------7-7-7-------12-11-12---------12---------12------12--||
E||------------------------------------------------------------||
Komentari
Još nema komentara