Bijelo Dugme

ima neka tajna veza(uvod)

by: faLLen_angel

Pronađi akord!

Ne znaš kako odsvirati neki od akorda pjesmi ima neka tajna veza(uvod)? Upiši akord u tražilicu i saznaj!

Traženi akord će se prikazati ovdje

Od istog izvođača

Pregledano 56554 puta
Pregledano 10203 puta
Pregledano 9585 puta
Pregledano 3103 puta
Pregledano 3467 puta
Trebaš ritam za ovu pjesmu? Pronađi ga ovdje
Akordi/Tabovi:
             ima neka tajna veza


E||--------------------------------------------------------|
B||-----------7h8h7---------12----10----8h7----------------|
G||---------9--------9-----------------------9-----5----4--|
D||-------9------------------------------------------------|
A||--7-----------------------------------------------------|
E||-------------------------10----8-----7----------5----3--|

                                                                     
E||----------------------------------7--------------------||
B||-------------------------------8-----------------------||
G||--9h11h9---6----8-----------9--------------------------|| 2x
D||-------------------------9-----------------------------||
A||----------------------7--------------------------------||
E||--8--------5----7--------------------7h-10----9-----7--||
Komentari
Još nema komentara