AC/DC

Flick Of The Switch

by: doom

Pronađi akord!

Ne znaš kako odsvirati neki od akorda pjesmi Flick Of The Switch? Upiši akord u tražilicu i saznaj!

Traženi akord će se prikazati ovdje

Od istog izvođača

Pregledano 926 puta
Pregledano 1530 puta
Pregledano 1935 puta
Pregledano 1651 puta
Pregledano 991 puta
Trebaš ritam za ovu pjesmu? Pronađi ga ovdje
Akordi/Tabovi:
~  = vibrato (hand)
tr = trill
h  = hammer on
p  = pulloff
b  = bend
U.B= unison bend
/ \= slide up or down
r  = release bend
< >= harmonic
( )= ghost note (partially implied)
[ ]= same note from bar before
*/*= legato slide
Intro:

e----------------|---------------------|
B-------------3--|---------------------|
G-2---5-------2--|---------------------|
D-2---5-------0--|---------------------| x6
A-0---3---0------|-------------2--3--2-|
E----------------|-1--2--3--4----------|
                /\
                 \                 
                  \
you do a break here at the second time you play it , in the 6th time you play it,
the verse starts , and its the same riff.

Rhy fig. 1
Verse 1 :

e----------------|---------------------|
B-------------3--|---------------------|
G-2---5-------2--|---------------------|
D-2---5-------0--|---------------------| x3
A-0---3---0------|-------------2--3--2-|
E----------------|-1--2--3--4----------|
  well, theres a love...             End of rhy fig. 1
Im not real sure of how many times you sould play it :P but its up to you how many ...


Prechorus:

e-------------|------------|-------------------------------------------|
B-----------3-|---------3--|-------3----------3----------3----------3--|
G-2--5------2-|---------2--|-------2----------2----------2----------2--|
D-2--5------0-|---------0--|-------0----------0----------0----------0--|
A-0--3---0----|---0--3-----|-0--3-------0--3-------0--3-------0--3-----|
E-------------|------------|-------------------------------------------|
She devil she evil...

Rhy fig. 2

e-------------------------|--------------------|
B-------------------------|--------------------|
G-------------------------|--------------------|
D----2--2--2--2--5--7--7--|--------------------|
A-3--0--0--0--0--3--5--5--|--5--3--5~----3--0--|
E-------------------------|--------------------|
With a flick of the switch

e----------------------2--|--2---3----2----------|
B----------------------3--|--3---3----3----------|
G-------------------2--2--|--2---0----2----------|
D----2--2--2--2--5--0--0--|--0---0----0----------|
A-3--0--0--0--0--3--------|-------------------0--|
E-------------------------|------3---------------|
                                               End of rhy fig. 2 

e----------------------2--|--2---3----2-------2--|--2--3---2-|
B----------------------3--|--3---3----3-------3--|--3--3---3-|
G-------------------2--2--|--2---0----2-------2--|--2--0---2-|
D----2--2--2--2--5--0--0--|--0---0----0-------0--|--0--0---0-|
A-3--0--0--0--0--3--------|----------------------|-----------|
E-------------------------|------3---------------|-----3-----|
With a flick of the switch , she can satisfy

Verse 2:
e----------------|---------------------|
B-------------3--|---------------------|
G-2---5-------2--|---------------------|
D-2---5-------0--|---------------------| x5
A-0---3---0------|-------------2--3--2-|
E----------------|-1--2--3--4----------|  *Verse starts at the third time*
She gonna blow you all sky high
         


Prechorus:               
e-------------|------------|-------------------------------------------|
B-----------3-|---------3--|-------3----------3----------3----------3--|
G-2--5------2-|---------2--|-------2----------2----------2----------2--|
D-2--5------0-|---------0--|-------0----------0----------0----------0--|
A-0--3---0----|---0--3-----|-0--3-------0--3-------0--3-------0--3-----|
E-------------|------------|-------------------------------------------|
She devil she evil

Chorus
e-------------------------|--------------------|
B-------------------------|--------------------|
G-------------------------|--------------------|
D----2--2--2--2--5--7--7--|--------------------|
A-3--0--0--0--0--3--5--5--|--5--3--5~----3--0--|
E-------------------------|--------------------|
With a flick of the switch

e----------------------2--|--2---3----2------|
B----------------------3--|--3---3----3------|
G-------------------2--2--|--2---0----2------|
D----2--2--2--2--5--0--0--|--0---0----0------|
A-3--0--0--0--0--3--------|---------------0--| 
E-------------------------|------3-----------|   


Before solo:

e-2--3---2----2--|-2--3---2----2--|-2--3--|
B-3--3---3----3--|-3--3---3----3--|-3--3--|
G-2--0---2----2--|-2--0---2----2--|-2--0--|
D-0--0---0----0--|-0--0---0----0--|-0--0--|
A----------------|----------------|-------|
E----3-----------|-2--3---2----2--|----3--|
Give me your pain

Solo:


e--------------------|------------------------------|
B--------------------|------7b8-----7---------------|
G--------------------|------7b8--5--7-----5-6-7-----|
D-5tr7~-7~--5h7p5~---|-----------------7--------7~--|
A------------------5~|------------------------------|
E--------------------|------------------------------|
                   Hold vibrato until bend

e---------------------------------5---------------------|
B--8b10~----8b10----8b10---8b10------5-8---5------------|
G----------------------------------------7---5-7--------|
D------------------------------------------------7--~---|
A-------------------------------------------------------|
E-------------------------------------------------------|

e--------------------------|----------------------------------------|
B--------------------------|---------------10--------10---------13--|
G-5-5p0--5p2p0-5p2p0-5p2p0-|-4b5------12U.B14---12U.B14----15U.B17--|
D--------------------------|----------------------------------------|
A--------------------------|----------------------------------------|
E--------------------------|----------------------------------------|

e---------------------------17----|-------------------------------------|
B---------------17-------17----20-|-17-------20----17-------------------|
G------------17----19b21----------|----19b21----19----20-19-17----19----|
D---19-19-19----------------------|----------------------------19---19~-|
A---------------------------------|-------------------------------------|
E---------------------------------|-------------------------------------|

e-----------------------17-----------17---------17----------|
B--17--17--------20b22-----17-20b21----17-20b21----17-20b22-|
G--17--17---------------------------------------------------|
D----------\------------------------------------------------|
A----------\------------------------------------------------|
E-----------------------------------------------------------|

e-------17------------------------------|-----------------------------|
B-20b22----20-17----17-20---------------|-----------------------------|
G----------------19-------19b21r19-17\--|-2-5-2---<2>-----------------|
D---------------------------------------|-------5-----5p2p0-----------|
A---------------------------------------|-------------------5p2p0-5b7-|
E---------------------------------------|-----------------------------|

e-----------------|-------------------|-------------------|
B---------------3-|--------3--------3-|--------3----------|
G---------------2-|--------2--------2-|--------2----------|
D---------------0-|--------0--------0-|--------0----------|
A---------0--3----|--0--3-----0--3----|--0--3-----0--3--0-|
E--(12)\----------|-------------------|-------------------|
                    Flick the switch

e-------------------------|--------------------|\
B-------------------------|--------------------| \
G-------------------------|--------------------|  \
D----2--2--2--2--5--7--7--|--------------------|   \
A-3--0--0--0--0--3--5--5--|--5--3--5~----3--0--|    \
E-------------------------|--------------------|     \
                                                      \
                                                       \
e----------------------2--|--2---3----2----------|     /   2x
B----------------------3--|--3---3----3----------|    /
G-------------------2--2--|--2---0----2----------|   /
D----2--2--2--2--5--0--0--|--0---0----0----------|  /
A-3--0--0--0--0--3--------|-------------------0--| /
E-------------------------|------3---------------|/
     

Solo 2 :
2x

              Hold bend
e--------------|-----------|---------15--------|
B--------------|-----------|---15b17----15b17--|
G----------7b9-|--(9)--7\~-|-------------------|
D--------------|-----------|-------------------|
A--------------|-----------|-------------------|
E--------------|-----------|-------------------|
flick of the switch

e-------------------|---------------|----------12--12--------|
B-15b17--15b17/-----|--13-----------|--15b17-----------15b17-|
G-------------------|------14--14~--|------------------------|
D-------------------|---------------|------------------------|
A-------------------|---------------|------------------------|
E-------------------|---------------|------------------------|
                  She gonna give you...
                                                     hold bend
e---------12-----------------|--17----------------20b22--|
B-15b17-------15b17\---20b22-|------20b22--20p17---------|
G----------------------------|---------------------------|
D----------------------------|---------------------------|
A----------------------------|---------------------------|
E----------------------------|---------------------------|
blow your brain...

e-r20--17-17-----------------------------|
B------------17-20-20-17-----------------|
G------------------------20-19-17--19b21-|
D----------------------------------------|
A----------------------------------------|
E----------------------------------------|
                        blow you brain...   

e---------------------|--------------------|
B--20-----------------|-----------------8--|
G------19b21--19b21\--|---17--19--x\-------|
D---------------------|19------------------|
A---------------------|--------------------|
E---------------------|--------------x\----|

e--------5------------------------|---------------|---------------|
B-[8]b10---5-8-----5--------------|---------------|---------------|
G--------------7b9---5-7----------|-------5b7r5~--|---------------|
D------------------------5*/*12\--|---------------|---------------|
A---------------------------------|-----0---------|---------------|
E---------------------------------|-3b5-----------|---------------|
shes gonna put ....
e----|
B-2--|
G-2--|
D-0--|
A----|
E----|
Komentari
Još nema komentara