Zabranjeno pusenje

lutka sa naslovne strane(tema)

by: faLLen_angel

Pronađi akord!

Ne znaš kako odsvirati neki od akorda pjesmi lutka sa naslovne strane(tema)? Upiši akord u tražilicu i saznaj!

Traženi akord će se prikazati ovdje

Od istog izvođača

Pregledano 7571 puta
Pregledano 6323 puta
Pregledano 12048 puta
Pregledano 3144 puta
Pregledano 294 puta
Trebaš ritam za ovu pjesmu? Pronađi ga ovdje
Akordi/Tabovi:
lutka sa naslovne strane


tema 1
E||-----------------------------|
B||-----------------------------|
G||-----------------------------| 3x
D||--10---10--9--7~-------------|
A||--------------------10---10--|
E||-----------------------------|

E||--------------------------------|
B||--------------------------------|
G||--------------------------------|
D||------7------7------7-----------|
A||--10-----10-----10-----7--------|
E||--------------------------10-8--|


tema 2
E||---------------------------------------------|
B||---------------------------------------------|
G||--------------------9--9--9--7---9-7h9h7-----| 3x
D||--10---10--9--7~-------------------------10--|
A||---------------------------------------------|
E||---------------------------------------------|

E||--------------------------------------------||
B||-----------------------10--10--10--10--10/--||
G||-------9-----9---9-----9---9---9---9---9/---||
D||--7----------7---7--------------------------||
A||--------------------------------------------||
E||--------------------------------------------||
Komentari

Prici kaže:

hvala..:D

08-06-2010 23:13