Aerosmith

Sweet Emotion

by: Guitar360

Pronađi akord!

Ne znaš kako odsvirati neki od akorda pjesmi Sweet Emotion? Upiši akord u tražilicu i saznaj!

Traženi akord će se prikazati ovdje

Od istog izvođača

Pregledano 11429 puta
Pregledano 1319 puta
Pregledano 6562 puta
Pregledano 2310 puta
Pregledano 2738 puta
Trebaš ritam za ovu pjesmu? Pronađi ga ovdje
Akordi/Tabovi:
Aerosmith - Sweet Emotion


A             D      A
S w e e t   E m o -  t i o n


Verse
|-----------------|-----------------|
|-3---------------|-----------------|
|-2---2-----2-----|---------2-------|
|-0---2-----2-----|---------2-------|
|-----0-----0-----|-3p0-----0-------|
|-----------------|-----3------(3)--|
talk about things and nobody cares.. etc.


Between verses
|-----------------|-----------------|
|-----------------|-----------------|
|-----------------|-----------------|
|-----------------|-----------------|
|-5p3p0-----------|-----------------|
|-------0-2-2---0-|-3-3---0-4---5---|


Outro (solo mainly in E dorian)
|-----------------|-----------------|
|-----------------|-----------------|
|---------7-----9-|---9-----2-2-----|
|-2---2---7-----9-|---9-----2-2-----|
|-2---2---5-----7-|---7-----0-0-----|
|-0---0-------0---|-------0-----3-4-|


-------------------------------------
Another Version:
-------------------------------------

Aerosmith "Sweet Emotion"         
-------------------------


Guitar intro/chorus (Fig A)            Bass intro/chorus
e--------------------------------- 
b--------------------------------- 
g---------------------------------  g---------12--------14------------------
d---------5-----7---7-------------  d---------------------------12-11-14-14- 
a-0---0-0---0-0-------0-0-5p0-4h5-  a-12--12------12-12---------------------
e---------------------------------  e---------------------------------------
   1 e + a 2 e + a 3 e + a 4 e + a     1 e + a 2 e +  a  3 e + a 4  e  +  a

Verse (Fig B)
e---------------------------------
b-3-------------------------------
g-2---2-----2-------------2-------
d-0---2-----2-------------2-------
a-----0-----0-----3p0-----0-------
e---------------------3-----------
   1 e + a 2 e + a 3 e + a 4 e + a

Between verses (Fig C)
e[---------------------------------]3 ---------------------------------
b[---------------------------------]3 ---------------------------------
g[---------------------------------]3 ---------------------------------
d[---------------------------------]3 ---------------------------------
a[-5p3p0---------------------------]3 -5p3p0---------------------------
e[-------0-2-2---0-3-3---0-4---5---]3 -------0-2-2---0-3-------4---5---
    1 e + a 2 e + a 3 e + a 4 e + a     1 e + a 2 e + a 3 e + a 4 e + a

The is how is goes on the Greatest Hits CD
(these words are what I think they are, if someone has the real lyrics,
please update them):
<Chorus> (Fig A 8 times)
         "Sweet Emotion
          Sweet Emotion"
<Verse>  (Fig B 8 times)
         "Talk about things and nobody cares
          wearin' out things that nobody wears
          callin' my name but I gotta make clear
          I can't say baby where I'll be in a year"
         (Fig C - no vocals here)
         (Fig B 8 times)
         "Some (sweat hoggin')? mama with a face like a gent
          said my get up and go must've got up and went
          well I got good news she's a real good liar
          'cause a backstage a boogie set ya pants on fire"
         (Fig C - no vocals here)
<Chorus> (Fig A 8 times)
         "Sweet Emotion
          Sweet Emotion"
<Verse>  (Fig B 8 times)
         "I pulled into town in a police car
          your daddy said I took you just a little too far
          you tell 'em them things but your girlfriend lied
          you can't catch me 'cause the rabbit done died (yes it did)"
         (Fig C - no vocals here)
         (Fig B 8 times)
         "Stand in the front just a shakin' your ass
          I take you backstage you can drink from my glass
          I talk about something you can sure understand
          'cause a month down the road I'll be eatin' from your hand"
         (Fig C - no vocals here)
<Chorus> (Fig A repeatedly 'til fade)
         "Sweet Emotion"
Komentari
Još nema komentara