Atomsko Sklonište

ne cvikaj generacijo(solo)

by: faLLen_angel

Pronađi akord!

Ne znaš kako odsvirati neki od akorda pjesmi ne cvikaj generacijo(solo)? Upiši akord u tražilicu i saznaj!

Traženi akord će se prikazati ovdje

Od istog izvođača

Pregledano 10222 puta
Pregledano 14837 puta
Pregledano 3298 puta
Pregledano 24391 puta
Pregledano 5170 puta
Trebaš ritam za ovu pjesmu? Pronađi ga ovdje
Akordi/Tabovi:
                  atomsko skloniste
                 ne cvikaj generacijo

   solo
E||-------------------------------------------------------|
B||--.--.------------------------------------------4b5r4--|
G||--9--7----------------------------------------5--------|
D||--------9h10--9--10--9h10-9---7~---7-5h7---------------|
A||-----------------------------------------7-------------|
E||-------------------------------------------5~----------|

                                               
E||-----------------.------------8--10h8------8--------8--|
B||-----------------5--------10-----------10-------10-----|
G||--5---------7h5-------/9---------------------/9--------|
D||-----7-------------------------------------------------|
A||-------------------------------------------------------|
E||-------------------------------------------------------|

                                                                     
E||--10h8------8------8-10h8----8-10b12--12r10------------|
B||--------10------10--------10-----------------13h15-12--|
G||-------------/9----------------------------------------|
D||-------------------------------------------------------|
A||-------------------------------------------------------|
E||-------------------------------------------------------|

                                                             
E||-------------------------------------------10----15b17-|
B||-13-12h13-12-10----10----------10-13-10-13----13-------|
G||----------------12----12----12-------------------------|
D||-------------------------14----------------------------|
A||-------------------------------------------------------|
E||-------------------------------------------------------|

                                                     
E||--15b17--17r15-----------------------------------------|
B||-----------------17h15---------------------------------|
G||-----------------------17-14~-------------14-12--------|
D||------------------------------------14-14-------14-13--|
A||-------------------------------------------------------|
E||-------------------------------------------------------|

                                               
E||-------------------------------------------------------|
B||-------------------------------------------------------|
G||-------------------------------------------------------|
D||--12-----------12-10h12---10-----10-9----10-9h10----9--|
A||-----15-12---------------------------------------12----|
E||-------------------------------------------------------|

                                                                           
E||-------------------------------------------------------|
B||-------------------------------------------------------|
G||-------------------------------------------------------|
D||--10-9h10------9-10-9h10---------------------10----10--|
A||-----------12------------12---10h12----10-12----12-----|
E||------------------------------------12-----------------|

                              .                                     
E||---------------------------5--.--.--------------------||
B||------------------------------8--5--------------------||
G||------------------------------------7h9---------------||
D||--12b14--10-10-10---12-10---------------10-7------7~--||
A||----------------------------------------------10------||
E||------------------------------------------------------||
Komentari

Zeleni_Zub kaže:

Je li ovo onaj solo na pocetku?
Ne mogu bas prokljuvit :D

25-10-2010 23:32

edinfidoris kaže:

Ovo je tab drugog sola poslušaj početak viditi ćeš da se ne uklapa tab u prvi solo ja sam morao skidati po sluhu prvi.

26-10-2010 16:19