Osmi Putnik

Šta Je Meni, Pjesmo Moja Ostalo(solo)

by: faLLen_angel

Pronađi akord!

Ne znaš kako odsvirati neki od akorda pjesmi Šta Je Meni, Pjesmo Moja Ostalo(solo)? Upiši akord u tražilicu i saznaj!

Traženi akord će se prikazati ovdje

Od istog izvođača

Pregledano 1501 puta
Pregledano 3050 puta
Pregledano 3968 puta
Pregledano 2402 puta
Pregledano 1669 puta
Trebaš ritam za ovu pjesmu? Pronađi ga ovdje
Akordi/Tabovi:
                      osmi putnik
           sta je meni pjesmo moja ostalo


   solo
E||--------------8b10-8b10--8-5--10b12-10-8--8b10r8-------8~--|
B||--8b10--5-8-5------------------------------------10-10-----|
G||-----------------------------------------------------------|
D||-----------------------------------------------------------|
A||-----------------------------------------------------------|
E||-----------------------------------------------------------|

                                                       
E||-----------------------------------------------------------|
B||------10/8-8/6---------------------------------------------|
G||--10-----------10/9-9/7-7--7-5-4--7b9---7b9r7----7b9--7b9--|
D||-----------------------------------------------9-----------|
A||-----------------------------------------------------------|
E||-----------------------------------------------------------|

                                         
E||---------------------20b22-20-17---------------------------|
B||--20b22---20b22--17--------------20b22-17-20b22-20b22-17/--|
G||-----------------------------------------------------------|
D||-----------------------------------------------------------|
A||-----------------------------------------------------------|
E||-----------------------------------------------------------|

                                                           
E||-----------------------------------------------------------|
B||--20--17----17---------------------------------------------|
G||---------19----19-17-19-17----17---------------------------|
D||---------------------------19----19-17-19-17----17--17b19--|
A||---------------------------------------------19------------|
E||-----------------------------------------------------------|

                                                                           
E||-----------------------------------------------------------|
B||-----------------------------------------------------------|
G||---------5------7b9-7--5-------14-12-12--------------------|
D||--7----7---7-5------------7-------------14-14-12-12--------|
A||----------------------------------------------------15-15--|
E||-----------------------------------------------------------|


E||----------------------------||
B||----------------------------||
G||----------------------------||
D||----------------------------||
A||--12--12--------------------||
E||---------15--15--12--12--8--||
Komentari
Još nema komentara