Osmi Putnik

Sjaj(tema)

by: faLLen_angel

Pronađi akord!

Ne znaš kako odsvirati neki od akorda pjesmi Sjaj(tema)? Upiši akord u tražilicu i saznaj!

Traženi akord će se prikazati ovdje

Od istog izvođača

Pregledano 2402 puta
Pregledano 2334 puta
Pregledano 4812 puta
Pregledano 1669 puta
Pregledano 2378 puta
Trebaš ritam za ovu pjesmu? Pronađi ga ovdje
Akordi/Tabovi:
    sjaj


                osmi putnik
                   sjaj

Tema
E||-------------------------------------------------------------|
B||-------------------------------------------------------------|
G||-------------------------------------------------------5--7--| 2x
D||--------------5--4-----4----5h7h5~---4~---5----7--9----3--5--|
A||--5~---7~-----------7--------------------------5--7----------|
E||-------------------------------------------------------------|


tema 2
E||-------------------------------------------------------------|
B||-------------------------------------------------------------|
G||---------11---------11h12h11--------------14---------14~-----|
D||--14--14----14--14------------12--14--14------14--14-----14--|
A||-------------------------------------------------------------|
E||-------------------------------------------------------------|

                                                                 
E||-------------------------------------|
B||-------------------------------------|
G||----------14----------14b15r14---12--| 2x
D||--14--14------14--14-----------------|
A||-------------------------------------|
E||-------------------------------------|
Komentari
Još nema komentara