Opća Opasnost

Jednom Kad Noć-solo

by: Spike 1234

Pronađi akord!

Ne znaš kako odsvirati neki od akorda pjesmi Jednom Kad Noć-solo? Upiši akord u tražilicu i saznaj!

Traženi akord će se prikazati ovdje

Od istog izvođača

Pregledano 13475 puta
Pregledano 8193 puta
Pregledano 2650 puta
Pregledano 5467 puta
Pregledano 7906 puta
Trebaš ritam za ovu pjesmu? Pronađi ga ovdje
Akordi/Tabovi:
-------------------|-------------------|----------------------|
-------------------|-------------------|----------------------|
-------------------|-------------------|-----------14b--------|
-------------------|-------------------|----------------------|
-------------------|-------------------|----------------------|
-------------------|-------------------|----------------------|



--------------------------|-----------------------------------|
--------------------------|-----------------------------------|
--14pbr----14----L--------|----------12--12~--L------12-14-12-|
--------------------------|--12--14---------------------------|
--------------------------|-----------------------------------|
--------------------------|-----------------------------------|

   
---------------------|-----------17b--------|--17pbr----17----L--------|
---------------------|----------------------|--------------------------|
---------------------|----------------------|--------------------------|
--14~----------------|--L-------------------|--------------------------|
---------------------|----------------------|--------------------------|
---------------------|----------------------|--------------------------|


---------14---L--------------|---------7---L---------------|
--17b-----L--17br----15------|--10b----L--10br----8--------|
-----------------------------|-----------------------7--5--|
-----------------------------|-----------------------------|
-----------------------------|-----------------------------|
-----------------------------|-----------------------------|


   
-------------------------|--------------------------|--------------------------|
-------------------------|--------------------------|--------------------------|
--12~--------------------|--7----9/----12-----------|--------------------------|
-------------------5--7--|--------------------------|--12--14~----L------------|
-------------5--7--------|---------------------/14--|--------------------------|
-------------------------|--------------------------|--------------------------|

     
-------------------|--------------------------|---------------------------|
-------------------|--------------------------|---------------------------|
-------------------|--------12----------------|------------14b----14br----|
-------------------|--14--------14b----L------|--12-----------------------|
-------------------|--------------------------|---------------------------|
-------------------|--------------------------|---------------------------|


   
---------------------|-------------------|-------------------|-------|-------|
---------------------|-------------------|-------------------|-------|-------|
--12~----------------|-------------------|-------------------|-------|-------|
---------------------|-------------------|-------------------|-------|-------|
---------------------|-------------------|-------------------|-------|-------|
---------------------|-------------------|-------------------|-------|-------|
Komentari

iron_maiden kaže:

kaj znaci ovo L,pbr i br?

10-08-2009 19:50

Pips kaže:

e sta je to?

02-10-2009 21:40

alen 7 kaže:

da covjece

04-03-2011 15:44

Mr.T kaže:

http://www.ultimate-guitar.com/forum/archive/index.php?t-733422.html
popis svih oznaka u tabovima

27-03-2011 16:34

Tomek33 kaže:

pbr - prebend pa release

br - bend i release

L - nemam pojma ?

26-06-2011 11:01