Six Feet Under

Murderers

by: JSatriani

Pronađi akord!

Ne znaš kako odsvirati neki od akorda pjesmi Murderers? Upiši akord u tražilicu i saznaj!

Traženi akord će se prikazati ovdje

Od istog izvođača

Pregledano 1541 puta
Pregledano 1531 puta
Pregledano 1619 puta
Pregledano 1539 puta
Pregledano 1061 puta
Trebaš ritam za ovu pjesmu? Pronađi ga ovdje
Akordi/Tabovi:
Tuning: "B"E"A"D"F#"B"


Riff 1-A
|-------------------------|--------------------------|
|-------------------------|--------------------------|
|-------------------------|--------------------------|
|--7----------------------|--8-----------8-8-8--8-8--|
|--5----------------------|--6-----------6-6-6--6-6--|
|--5----------------------|--6-----------6-6-6--6-6--|


Riff 1-B
|-------------------------|--------------------------|
|-------------------------|--------------------------|
|-------------------------|--------------------------|
|--7----------7-7-7--7-7--|--8-----------8-8-8--8-8--|
|--5----------5-5-5--5-5--|--6-----------6-6-6--6-6--|
|--5----------5-5-5--5-5--|--6-----------6-6-6--6-6--|


Riff 2
|---------------------------------|
|---------------------------------|
|---------------------------------|
|--7------10------11------10---8--|
|--5-------8-------9-------8---6--|
|--5--0-0--8--0-0--9--0-0--8-0-6--|
      . .     . .     . .    .

Riff 3-A
|---------------------------------|
|---------------------------------|
|-------------------------8---10--|
|--8------10------11------6----8--|
|--6-------8-------9------6----8--|
|--6--0-0--8--0-0--9--0-0---------|
      . .     . .     . .

Riff 3-A
|---------------------------------------|
|---------------------------------------|
|-------------------------8-------------|
|--8------10------11------6----9--------|
|--6-------8-------9------6----7--------|
|--6--0-0--8--0-0--9--0-0------7--------|
      . .     . .     . .

Riff 4 (Solo Riff)
|-----------------------------------|
|-----------------------------------|
|-----------------------------------|
|-----------------------------------|
|-----------------------------------|
|--0-0-0-0-3-3-3-3-6-6-6-6-5-5-5-5--|
   . . . . . . . . . . . . . . . .

Riff 5
|-----------------------------------|
|-----------------------------------|
|-----------------------------------|
|-----------------------------------|
|----------------------------2-5-3--|
|--3-1-0-3-1-0-3-1-0-3-1-0-0-0-3-1--|
   . . . . . . . . . . . . .

End
|--------|
|--------|
|--------|
|--7x----|
|--5x----|
|--5x----|
Komentari
Još nema komentara