Prljavo Kazalište

Moj Bijeli Labude(solo)

by: faLLen_angel

Pronađi akord!

Ne znaš kako odsvirati neki od akorda pjesmi Moj Bijeli Labude(solo)? Upiši akord u tražilicu i saznaj!

Traženi akord će se prikazati ovdje

Od istog izvođača

Pregledano 43862 puta
Pregledano 6298 puta
Pregledano 4215 puta
Pregledano 1665 puta
Pregledano 5435 puta
Trebaš ritam za ovu pjesmu? Pronađi ga ovdje
Akordi/Tabovi:
         moj bijeli labude

E||-----------------------------------------|
B||-------------------------5---6----5------|
G||--7b9----5h7--5-----7-----------------7--|
D||-----------------------------------------|
A||-----------------------------------------|
E||-----------------------------------------|
                                                                       
E||-----------------------------5-----------|
B||--5--6--5-----5----------------5---8b10--|
G||-----------7-----7--5--------------------|
D||------------------------7----------------|
A||-----------------------------------------|
E||-----------------------------------------|
                                                               
E||---5--5--7----8----5------8~----7h8h--7--|
B||-----------------------------------------|
G||-----------------------------------------|
D||-----------------------------------------|
A||-----------------------------------------|
E||-----------------------------------------|
                                                                           
E||-----------------------------------------|
B||--5b6r5----------------5b6r5------5------|
G||-----------7--5-----------------7-----7--|
D||------------------7----------------------|
A||-----------------------------------------|
E||-----------------------------------------|

E||-------------------------------------12--|
B||--8h5----5--8h10---------12--13--15------|
G||------7--------------14------------------|
D||-----------------------------------------|
A||-----------------------------------------|
E||-----------------------------------------|
                                                   
E||---------15r13-------13--12--10------10--|
B||--13-----------------------------13------|
G||-----------------------------------------|
D||-----------------------------------------|
A||-----------------------------------------|
E||-----------------------------------------|
                                                                   
E||------------------------------10----12--||
B||--10------8h10----12----13--------------||
G||----------------------------------------||
D||----------------------------------------||
A||----------------------------------------||
E||----------------------------------------||
Komentari

kresimir15 kaže:

ja sam našao na netu malo puno lakši tab i bolje zvuči.

e|-------7-----5--------3-----1--------5-----3--------
H|-----0---0----------0---0----------0---0------------
G|---5-------5------2-------2------4-------4----------
D|----------------3--------------5--------------------
A|-0--------------------------------------------------
E|----------------------------------------------------

e|-------7-----5--------3-----1--------5-----3--------
H|-----0---0----------0---0----------0---0------------
G|---5-------5------2-------2------4-------4----------
D|----------------3--------------5--------------------
A|-0--------------------------------------------------
E|---------------------------------------------------0

12-08-2008 10:31

Matador kaže:

@ kresimir15

Ovo kaj si ti stavio ti je uvod, a ovo iznad ti je solaža koja ide na kraju.

08-07-2009 11:55

addmir_ kaže:

jel moze neko da napise ritam pjesme??

24-05-2010 12:10

haris kaže:

Fino sebi pustiš pjesmu i akord po akord..

24-05-2010 17:28

Luka11 kaže:

evo kresimirov post jos jednom samo u ravnini




e|-------7-----5--------3-----1--------5-----3--------
H|-----0---0----------0---0----------0---0------------
G|---5-------5------2-------2------4-------4----------
D|----------------3--------------5--------------------
A|-0--------------------------------------------------
E|----------------------------------------------------

e|-------7-----5--------3-----1--------5-----3--------
H|-----0---0----------0---0----------0---0------------
G|---5-------5------2-------2------4-------4----------
D|----------------3--------------5--------------------
A|-0--------------------------------------------------
E|---------------------------------------------------0

04-08-2010 15:11

Luka11 kaže:

i dodatak
na kraju ide jos

e|----12-----
H|-------12--
G|-----------
D|-----------
A|-----------
E|-0---------

s tim da ovo 12 nije pravi 12ti prag vec samo blagi dodir zice izmedju 12tog i 13tog praga
bez klasicnog pritiskanja zice

04-08-2010 15:23