Aerosmith

Cryin'

by: Guitar360

Pronađi akord!

Ne znaš kako odsvirati neki od akorda pjesmi Cryin'? Upiši akord u tražilicu i saznaj!

Traženi akord će se prikazati ovdje

Od istog izvođača

Pregledano 2418 puta
Pregledano 1220 puta
Pregledano 2733 puta
Pregledano 1177 puta
Pregledano 3236 puta
Trebaš ritam za ovu pjesmu? Pronađi ga ovdje
Akordi/Tabovi:
Aerosmith - Cryin'



-Intro-

  A#5  C5   F5   G5                           
e:-x----x----x----x----I------------------I
B:-x----x----x----x----I------------------I
G:-3----5----x----x----I---6h7-7-7-6-5----I
D:-3----5----3----5----I---------------8--I
A:-1----3----3----5----I------------------I
E:-x----x----1----3----I------------------I


e:-x----x----x----x----I-------------------------I
B:-x----x----x----x----I-------------------------I
G:-3----5----x----x----I----6h7-7-7-6-5----------I
D:-3----5----3----5----I----------------8h10-8---I
A:-1----3----3----5----I-------------------------I
E:-x----x----1----3----I-------------------------I


  A#5  C5   F5   G5                           
e:-x----x----x----x----I-------------------I
B:-x----x----x----x----I-------------------I
G:-3----5----x----x----I---6h7-7-7-6-5-----I
D:-3----5----3----5----I---------------8---I
A:-1----3----3----5----I-------------------I
E:-x----x----1----3----I-------------------I


e:-x----x----x----x----I---------------------I
B:-x----x----x----x----I---------------------I
G:-3----5----x----x----I---6h7-7-7-6-5-------I
D:-3----5----3----5----I---------------10-8--I
A:-1----3----3----5----I---------------------I
E:-x----x----1----3----I---------------------I

-Verse 1-

              There was a time                when i was so brokenhearted
         A                E             F#m                 C#m
e:-------0----------------0------I--------2------------------4------I
B:-----2---2------------0---0----I------2---2--------------5---5----I
G:---2-------2--------1-------0--I----2-------2----------6-------6--I
D:-2-----------------------------I-------------------6--------------I
A:------------------2------------I--4-------------------------------I
E:-------------------------------I----------------------------------I


                love wasn´t much of a friend of mine
         D                  A            E
e:-------2------------------0------------0------0------0------I
B:-----3---3--------------2---2--------0---0------0------0----I
G:---2-------2----------2-------2----1-------1------1------1--I
D:-0------------------2---------------------------------------I
A:---------------------------------2--------------------------I
E:------------------------------------------------------------I   


             the tables have turned, yeah   
        A                   E             
e:-------0-------------------0---------I
B:-----2---2---------------0---O-------I
G:---2-------2-----------1-------1-----I
D:-2-----------------------------------I
A:---------------------2---------------I
E:-------------------------------------I

                couse me and them ways have parted
          F#m                     C#m 
e:---------2-----------------------4-------I
B:-------2---2-------------------5---5-----I
G:-----2-------2---------------6-------6---I
D:---------------------------6-------------I
A:---4-------------------------------------I
E:-----------------------------------------I



               that kind of love was the killin´ kind
          D                 A              E
e:--------2-----------------0--------------0------0-------O------I
B:------3---3-------------2---2----------0---0------0-------O----I
G:----2-------2---------2-------2------1-------1------1-------1--I
D:--O-----------------2------------------------------------------I
A:------------------------------2--------------------------------I
E:---------------------------------------------------------------I



  G          D           G              D 
       all i want is someone I can´t resist

e:-------------------------------------------------------------I
B:-------------------------------------------------------------I
G:-------------------------------------------------------------I
D:-----4-7-4---------4-7-4-0-------4-7-4-5-------4-5-7---------I
A:-5-5-------0-----5-------------5-------------5---------------I
E:-------------------------------------------------------------I       

C                G                    E             
       I know all I need to know by the way that I got kissed

e:--------------------------------------------------------------I
B:--------------------------------------------------------------I
G:-------------------------------------1--1--1--1--1--1--1--1---I
D:-------4-5-7-----------3-4-6---------2--2--2--2--2--2--2--2---I
A:---5-5-------------4-4---------------2--2--2--2--2--2--2--2---I
E:--------------------------------------------------------------I

-Chorus-
        A             E         
I was cryin´ when I met you

e:-------0------------0--------I
B:-----2---2--------0---0------I
G:---2-------2----1-------1----I
D:-2---------------------------I
A:--------------2--------------I
E:-----------------------------I

         F#m           D             A 
  now I´m tryin´ to forget you

e:--------2------------2--------------O---------I
B:------2---2--------3---3----------2---2-------I
G:----2-------2----2-------2------2-------2-----I
D:---------------0--------------2---------------I
A:-4--------------------------------------------I
E:----------------------------------------------I

                E        D   
your love is sweet misery

e:-------------0-----------2-------2------2----------I
B:-----------0---0-------3---3-------3------3--------I
G:---------1-----------2-------2-------2------2------I
D:-------------------0-------------------------------I
A:-------2-------------------------------------------I
E:---------------------------------------------------I

         A             E
I was cryin´ just to get you

e:-------0-------------0---------I
B:-----2---2---------0---0-------I
G:---2-------2-----1-------1-----I
D:-2-----------------------------I
A:---------------2---------------I
E:-------------------------------I
       C#m               D             A     
now i´m dyin´ ´couse I let you

e:-------4--------------2---------------0---------I
B:-----5---5----------3---3-----------2---2-------I
G:---6-------6------2-------2-------2-------2-----I
D:-6--------------0---------------2---------------I
A:------------------------------------------------I
E:------------------------------------------------I

           E             D
do what you do, down on me

e:---------0---------------2-----------2-------I
B:-------0---0-----------3---3---------3-------I
G:-----1-------1-------2-------2-------2-------I
D:-------------------0-----------------0-------I
A:---2-----------------------------------------I
E:---------------------------------------------I



-Intro-

now there´s not even breathin´room
between pleasure and plain
yeah, you cry when we´re makin´ love
must be one and the same



-Verse 2-

it´s down on me
yeah I got to tell you one thing
it´s been on my mind, girl I gotta say
we´re partners in crime
you got that certain something
what you give to me takes my breath away
now the world out onthe street is the devil´s in your kiss
if our love goes up in flames it´s a fire I can´t resist


-Chorus-

-Intro-
 


-Bridge-
      D#              A#
Couse what you got inside
       D#                     A#
ain´t where your love should stay
      G#                 D#     
yeah, our love, sweet love, ain´t love 
         E
till you give your heart away


-Alt. Chorus-
        A           E
I was cryin when I met you
        C#m          D          A
now I´m tryn´ to forget you
               E          D 
your love is sweet misery   
        A            E       
I was cryin just to get you
         F#m               D          A
now I´m dy---in´ just to let you
          E                        D
do what you do what you do down to me,

     baby, baby, baby


-Harmonic solo-

A - E - C#m - D - A - E - D

A - E - F#m - D - A - E - D
Komentari

domi.stratocaster kaže:

najljepsa :)

29-08-2010 14:29