Atomsko Sklonište

Djevojko Broj 8(solo)

by: faLLen_angel

Pronađi akord!

Ne znaš kako odsvirati neki od akorda pjesmi Djevojko Broj 8(solo)? Upiši akord u tražilicu i saznaj!

Traženi akord će se prikazati ovdje

Od istog izvođača

Pregledano 9016 puta
Pregledano 20372 puta
Pregledano 10392 puta
Pregledano 5652 puta
Pregledano 12427 puta
Trebaš ritam za ovu pjesmu? Pronađi ga ovdje
Akordi/Tabovi:
                    djevojka broj 8


E||---------5-----------------------------------------------------|
B||--8b10-------8--6--8b10r8-------------------------------6------|
G||----------------------------7~----7--5h7-5-----5--7--7-----7~--|
D||--------------------------------------------7------------------|
A||---------------------------------------------------------------|
E||---------------------------------------------------------------|
                                                                           
E||---------8b10----------8b10-----------10-----8h10h8------8/10--|
B||------6-------------6-------------6----------------------------|
G||--5h7-----------5h7-----------5h7------------------------------|
D||---------------------------------------------------------------|
A||---------------------------------------------------------------|
E||---------------------------------------------------------------|
                                                         
E||--8------------------------------------------------------------|
B||-----10--10h8----8-----------6--------6-----8h6---6---8h6---6--|
G||--------------10---10--7h5h7---7h5h7-----7------7---7-----7----|
D||---------------------------------------------------------------|
A||---------------------------------------------------------------|
E||---------------------------------------------------------------|
                                                     
E||---------------------------------------------------------------|
B||--8/--10--8----8--6h8-6/5---6--5h6h5---8--5h6-5----------------|
G||------------10-----------------------5----------5-7---5-7h5----|
D||----------------------------------------------------7-------7--|
A||---------------------------------------------------------------|
E||---------------------------------------------------------------|                                                   
                                                                         
E||---------------------------------------------------------------|
B||--------6-----6--8-----8h10r8---6---6--------8--------6-----8--|
G||--5--7-----7--------7-------------7-------7-----7--7-----7-----|
D||---------------------------------------------------------------|
A||---------------------------------------------------------------|
E||---------------------------------------------------------------|
                                                           
E||---------------------------------8--10h8------8--10--8--10b12--|
B||--------6----8h6---8h6-------10-----------10-------------------|
G||--7--7------------------7--------------------------------------|
D||---------------------------------------------------------------|
A||---------------------------------------------------------------|
E||---------------------------------------------------------------|
                                                           
E||--10b12--10b12--10b12r10-----8-----10----10----10h8-----8--10--|
B||-------------------------------10-------------------10---------|
G||---------------------------------------------------------------|
D||---------------------------------------------------------------|
A||---------------------------------------------------------------|
E||---------------------------------------------------------------|
                                                                           
E||--10------10-----10---8----------------10------8---------------|
B||-------------------------10------------------------10----------|
G||------------------------------7--10---------------------7--10--|
D||---------------------------------------------------------------|
A||---------------------------------------------------------------|
E||---------------------------------------------------------------|
                                                       
E||---------------------------------------------------------------|
B||----------------8h10r8--6---6---8h6---6---8h6----6-----8h6-----|
G||--7--10--7----------------7---7-----7---7-----7-----7-------7--|
D||------------10-------------------------------------------------|
A||---------------------------------------------------------------|
E||---------------------------------------------------------------|
                                                                               
E||-----------8b10----8--5----------------------------------------|
B||--6--8--6----------------9---8---6-----------------------------|
G||--------------------------------------7---5----------5--7h5----|
D||----------------------------------------------7h5h7---------7--|
A||---------------------------------------------------------------|
E||---------------------------------------------------------------|
                                                                               
E||---------------------------------------------------------------|
B||-------6---------------6-------6-------------6--------6-----6--|
G||--5--7---7--5--6--7--7---7--7----7--7--7--7-----7--7-----7-----|
D||---------------------------------------------------------------|
A||---------------------------------------------------------------|
E||---------------------------------------------------------------|
                                                       
E||---------------------------------------------------------8b10--|
B||--8h6----6-----8h6----6-------6--8b10---8b10---8h6----6--------|
G||------7-----7------7-----7-------------------------7-----------|
D||---------------------------------------------------------------|
A||---------------------------------------------------------------|
E||---------------------------------------------------------------|
                                                         
E||--8---5------------------13b15--13---10------------------------|
B||---------8h6-----6-----------------------13---10---------------|
G||--------------7-----7------------------------------13--12--10--|
D||---------------------------------------------------------------|
A||---------------------------------------------------------------|
E||---------------------------------------------------------------|
                                                           
E||---------------------------------------------------------------|
B||---------------------------------------------------------------|
G||--------------------------10----------------------5---7h5------|
D||--12----------------10----------12~-----------7-------------7--|
A||--------10----12-----------------------------------------------|
E||---------------------------------------------------------------|

E||---------------------------------------------------------------|
B||--------6-----8h10r8----6---------6--------6--8b10r8----6------|
G||--5--7-----7-----------------7---------7--------------------7--|
D||---------------------------------------------------------------|
A||---------------------------------------------------------------|
E||---------------------------------------------------------------|
                                                                   
E||-----------------8--10h8-----10h8-----10h8-----10h8-----8--10--|
B||--6-----6--8/10----------10-------10-------10-------10---------|
G||-----7---------------------------------------------------------|
D||---------------------------------------------------------------|
A||---------------------------------------------------------------|
E||---------------------------------------------------------------|
                                                         
E||--10b12--10b12--12r10-8------8--10b12--10b12--12r10--8------8--|
B||-------------------------10-----------------------------10-----|
G||---------------------------------------------------------------|
D||---------------------------------------------------------------|
A||---------------------------------------------------------------|
E||---------------------------------------------------------------|
                                                                       
E||--15b17--15--13--15--13h15h13--12--13h12h13h12h13h12h13h12-----|
B||-----------------------------------------------------------15--|
G||---------------------------------------------------------------|
D||---------------------------------------------------------------|
A||---------------------------------------------------------------|
E||---------------------------------------------------------------|
                                                       
E||---------------------------------------------------------------|
B||---------------------6--8b10-----8--6--8--6h8h6-5----6--5h6h5--|
G||-----5--7-5----5--7--------------------------------------------|
D||--7---------7--------------------------------------------------|
A||---------------------------------------------------------------|
E||---------------------------------------------------------------|
                                                                         
E||--------------------------------------------------------------||
B||-----5--------------------------------------------------------||
G||--7----7--5-----5--7---5--6--7---5--6--7---5--6--7---5--6--7--||
D||-------------7------------------------------------------------||
A||--------------------------------------------------------------||
E||--------------------------------------------------------------||


                         
Komentari
Još nema komentara