Kemal Monteno

Nije Htjela(uvod)

by: faLLen_angel

Pronađi akord!

Ne znaš kako odsvirati neki od akorda pjesmi Nije Htjela(uvod)? Upiši akord u tražilicu i saznaj!

Traženi akord će se prikazati ovdje

Od istog izvođača

Pregledano 2331 puta
Pregledano 2063 puta
Pregledano 41514 puta
Pregledano 7547 puta
Pregledano 17753 puta
Trebaš ritam za ovu pjesmu? Pronađi ga ovdje
Akordi/Tabovi:
         nije htjela

   C                         
E||---------------------------15--|
B||--17--15-17--15-17--15---------|
G||-----------------------17------|
D||-------------------------------|
A||-------------------------------|
E||-------------------------------|

   Am                                                                   
E||--20--19-20--19-20-------------|
B||------------------------22-20--|
G||--------------------21---------|
D||-------------------------------|
A||-------------------------------|
E||-------------------------------|

   F                         
E||-------------------------------|
B||--22--20-22---20-22------------|
G||------------------------19-21--|
D||--------------------22---------|
A||-------------------------------|
E||-------------------------------|

   G               
E||---------------||
B||-----------20--||
G||--21-22-21-----||
D||---------------||
A||---------------||
Komentari
Još nema komentara