Parni Valjak

Neda (solo)

by: faLLen_angel

Pronađi akord!

Ne znaš kako odsvirati neki od akorda pjesmi Neda (solo)? Upiši akord u tražilicu i saznaj!

Traženi akord će se prikazati ovdje

Od istog izvođača

Pregledano 6012 puta
Pregledano 44247 puta
Pregledano 42693 puta
Pregledano 472 puta
Pregledano 649 puta
Trebaš ritam za ovu pjesmu? Pronađi ga ovdje
Akordi/Tabovi:
                neda


E||--15----------------12h10----------------------------|
B||-------15------15-----------12-----------------------|
G||---------------------------------14--12--14--12--14--|
D||-----------------------------------------------------|
A||-----------------------------------------------------|
E||-----------------------------------------------------|
                                                             
E||-----------------------------------------------------|
B||-----------------------------------------------------|
G||--12---14-12--12-------------------12--14--12----14--|
D||------------------14--14--12--14---------------------|
A||-----------------------------------------------------|
E||-----------------------------------------------------|
                                                                   
E||-------------10-------------------------------------||
B||------11-12------11-10------------------------------||
G||--12--------------------12---14h12---11-------------||
D||------------------------------------------14----14--||
A||----------------------------------------------------||
E||----------------------------------------------------||
Komentari

ivansmit11 kaže:

kak može hammer s 12. na 10, polje

03-04-2010 19:58