Alice Cooper

Welcome to my Nightmare

by: Guitar360

Pronađi akord!

Ne znaš kako odsvirati neki od akorda pjesmi Welcome to my Nightmare? Upiši akord u tražilicu i saznaj!

Traženi akord će se prikazati ovdje

Od istog izvođača

Pregledano 2573 puta
Pregledano 7824 puta
Pregledano 1659 puta
Pregledano 1134 puta
Pregledano 2062 puta
Trebaš ritam za ovu pjesmu? Pronađi ga ovdje
Akordi/Tabovi:
Alice Cooper - Welcome to my Nightmare

/slide
h-hammeron
v1-verse1 lyrics
v2-verse2 lyrics
b-bend up


verse 1 and 2 are writen above the pending guitar part.

|---------------------------|
|---------------------------|
|---------------------------|
|---------------------------|
|---------------------------|
|----------------------7s2--|

|-----------|-------7--------|
|-----------|-------5--------|
|-----------|-------4--------|
|-----------|-------0--------|
|------5-7--|----------------|
|-0-5h7-----|-0--------------|

|-----------|----------------|
|-----------|----------------|
|-----------|----------------|
|-----------|----------------|
|------5-7--|----------------|
|-0-5h7-----|-0---0---0-0----|

|-----------|-------7--------|
|-----------|-------5--------|
|-----------|-------4--------|
|-----------|-------0--------|
|------5-7--|----------------|
|-0-5h7-----|-0--------------|

|-----------|----------------|
|-----------|----------------|
|-----------|----------------|
|-----------|----------------|
|------5-7--|----------------|
|-0-5h7-----|-0--------------|
v1  welcome to my nightmare
v2  a nocternal vacatrion
|-0---------|----------------------|
|-8---------|----------------4-8-7-|
|-0---------|---------------5------|
|-9---------|----------------------|
|-7---------|----------------------|
|-----------|----------------------|
i think your gonna like    it
un necessary    sed a    tion
|-------------------------|---------------|
|-------------------------|------4-7-5----|
|-------------------------|-----5---------|
|-------------------------|---------------|
|-------------------------|---------------|
|-------------------------|---------------|
i think your gonna feel you belong
you wann feel at home cuz you
|-------------------|---------|-------------|--0---|
|-------------------|---------|-------------|--8---|
|-------------------|---------|-------------|--0---|
|-------------------|---------|-------------|--9---|
|-------------------|---------|-------------|--7---|
|-------------------|---------|--0----------|------|

belong
   |--------|--------|---------|
   |--------|--------|---------|
   |--------|--------|---------|
   |--------|--5-----|---------|
   |---7-7-5|----7-5-|-7-------|
   |-0------|7-------|---0-5-7-|


welcome to my nightmare woa woa
                      |------------|
                      |------------|
                      |--------7--9|
                      |--------7--9|
                      |------5-5--7|
                      |------------|
verse
guitar1(im nto sure if this parts right.)this part is the same for all the verses and
even if it isnt exaclty right its pretty close. but theres so much other stuff going
on in the song that its hard to here which part the guitar plays exaclty.

this is all verse1
welcome to my  breakdown
i hope i didnt scare you
thats jsut the way were are ween we come down
we sweat laugh and scream here
coz life is jsut a dream here
you now inside you feel right at home

|--x-x---x-x-----|-x-x---7-7-----|
|--x-x-5-x-x-5-5-|-x-x-5-5-5-5-5-|
|--x-x-4-x-x-4-4-|-x-x-4-4-4-4-4-|
|----------------|---------------|
|----------------|---------------|
|----------------|---------------|
guitar2
|---------------|---------0-0-----|
|---------------|---------8-8-----|
|-----9-9-x-9-9-|-----9-9-0-0-9-9-|
|-----9-9-x-9-9-|-----9-9-9-9-9-9-|
|-5/7-7-7-x-7-7-|-5/7-7-7-7-7-7-7-|
|---------------|-----------------|

welcome to my breakbown
yeah welcome to my nightmare woa woa

|----------------------------------|
|----------------------------------|
|----------------------------------|
|-----9-9-9-9-9-9-9-9-9------5-----|
|-----9-9-9-9-9-9-9-9-9----5---7---|
|-0-5-7-7-7-7-7-7-7-7-7--0---------|


|--x-x---x-x-----|-x-x---7-7-----|
|--x-x-5-x-x-5-5-|-x-x-5-5-5-5-5-|
|--x-x-4-x-x-4-4-|-x-x-4-4-4-4-4-|
|----------------|---------------|
|----------------|---------------|
|----------------|---------------|
guitar2
|---------------|---------0-0-----|
|---------------|---------8-8-----|
|-----9-9-x-9-9-|-----9-9-0-0-9-9-|
|-----9-9-x-9-9-|-----9-9-9-9-9-9-|
|-5/7-7-7-x-7-7-|-5/7-7-7-7-7-7-7-|
|---------------|-----------------|

bridge
the baring on this is probly wrong so just play it and figure out where evrthing goes.

|-14b15--12-12--9|9--9-7-5-8--|-8-7-7--5|5-5-3-1---|
|----------------|------------|---------|--------3-|
|----------------|------------|---------|----------|
|----------------|------------|---------|----------|
|----------------|------------|---------|----------|
|----------------|------------|---------|----------|

|------|-------|--------|--------------|-----------|-20-22-----|
|-5-7--|-8----9|-12-13--|-15~17~-18b19-|-20-22-24--|-----------|
|------|----------------|--------------|-----------|-----------|
|------|----------------|--------------|-----------|-----------|
|------|----------------|--------------|-----------|-----------|
|------|----------------|--------------|-----------|-----------|
Komentari
Još nema komentara