Parni Valjak

Hvala Ti(solo)

by: faLLen_angel

Pronađi akord!

Ne znaš kako odsvirati neki od akorda pjesmi Hvala Ti(solo)? Upiši akord u tražilicu i saznaj!

Traženi akord će se prikazati ovdje

Od istog izvođača

Pregledano 5335 puta
Pregledano 6351 puta
Pregledano 1583 puta
Pregledano 49834 puta
Pregledano 28412 puta
Trebaš ritam za ovu pjesmu? Pronađi ga ovdje
Akordi/Tabovi:
          parni valjak
                 hvala ti


E||--7--------------11h12-11-----------------------11--|
B||-------9----------------------12--------------------|
G||------------9-----------------------13--------------|
D||------------------------------------------14--------|
A||----------------------------------------------------|
E||----------------------------------------------------|
                                                                               
E||----------------11h12-11----------------------------|
B||--12------------------------------------------------|
G||-------13-------------------------------------------|
D||------------14-------------------7----9---9---------|
A||---------------------------10----------------9------|
E||------------------------------------------------10--|
                                                                             
E||-------------------||
B||-------------------||
G||-------------------||
D||---------9---------||
A||------------9------||
E||--7------------10--||
Komentari
Još nema komentara