Parni Valjak

Dok Je Tebe(uvod,solo)

by: faLLen_angel

Pronađi akord!

Ne znaš kako odsvirati neki od akorda pjesmi Dok Je Tebe(uvod,solo)? Upiši akord u tražilicu i saznaj!

Traženi akord će se prikazati ovdje

Od istog izvođača

Pregledano 1367 puta
Pregledano 90891 puta
Pregledano 1302 puta
Pregledano 7411 puta
Pregledano 7951 puta
Trebaš ritam za ovu pjesmu? Pronađi ga ovdje
Akordi/Tabovi:
      parni valjak
          dok je tebe(live)

uvod
E||--5--------------7--5----------------------|
B||-----7--5---7---------7--------------------|
G||-------------------------7--------7---7h9--|
D||------------------------------7h9---9------|
A||-------------------------------------------|
E||-------------------------------------------|
                                                                       
E||----5-7-5-------------------7----5--------||
B||--5--------7-------------7----------------||
G||----------------7----7h9---------------7--||
D||------------------------------------------||
A||------------------------------------------||
E||------------------------------------------||


solo
E||--------------------------------------------------|
B||------------------10------------------------10----|
G||------7---7----9-----9--7-------9--7--------------|
D||--7-9---9-------------------7-9-------------------|
A||--------------------------------------------------|
E||--------------------------------------------------|
                                                               
E||--------------------------------7-10-12-12---10------10--||
B||--10-------------------------10------------------12------||
G||------11-9-11-9-----9-----7------------------------------||
D||----------------12-----9---------------------------------||
A||---------------------------------------------------------||
E||---------------------------------------------------------||
Komentari
Još nema komentara