OK Band

ne mogu da podnesem(tema)

by: faLLen_angel

Pronađi akord!

Ne znaš kako odsvirati neki od akorda pjesmi ne mogu da podnesem(tema)? Upiši akord u tražilicu i saznaj!

Traženi akord će se prikazati ovdje

Od istog izvođača

Pregledano 5334 puta
Pregledano 2718 puta
Pregledano 3512 puta
Pregledano 14414 puta
Pregledano 2449 puta
Trebaš ritam za ovu pjesmu? Pronađi ga ovdje
Akordi/Tabovi:
         ok bend
         ne mogu da podnesem


E||------------------------------------------|
B||------------------------------------------|
G||--20--17--17--17--17--17------17--19--19--|
D||--------------------------20--------------|
A||------------------------------------------|
E||------------------------------------------|
                                             
E||------------------------------------------|
B||------------------------------------------|
G||--19------------------------------17--17--|
D||------20--20--20--20--20--18--20----------|
A||------------------------------------------|
E||------------------------------------------|
                                             
E||------------------------------------------|
B||------------------------------------------|
G||--17------------------------------15--15--|
D||------18--18--18--18--18--17--18----------|
A||------------------------------------------|
E||------------------------------------------|
                                         
E||-----------------------------------------||\
B||-----------------------------------------|| \
G||----------------------15-----------------||  \ 2x
D||--18--17--18--17--18------18--17--17-----||  /
A||-----------------------------------------|| /
E||-----------------------------------------||/
Komentari
Još nema komentara