Zvonko Bogdan

moja mala nema mane

by: faLLen_angel

Pronađi akord!

Ne znaš kako odsvirati neki od akorda pjesmi moja mala nema mane? Upiši akord u tražilicu i saznaj!

Traženi akord će se prikazati ovdje

Od istog izvođača

Pregledano 45766 puta
Pregledano 30501 puta
Pregledano 9456 puta
Pregledano 10883 puta
Pregledano 3924 puta
Trebaš ritam za ovu pjesmu? Pronađi ga ovdje
Akordi/Tabovi:
                 Zvonko Bogdan
                     moja mala nema mane

   
E||--7---8--7---6--7-----------------------------------------8---7------|
B||--------------------8--7---------------7--8--10--8--7-------------7--|
G||---------------------------9--------9------------------9-------------|2x
D||--------------------------------9------------------------------------|
A||---------------------------------------------------------------------|
E||---------------------------------------------------------------------|

                                                                               
E||-12----12----12-10------------------10-------------------------------|
B||----12----12-------13-12-13-12--10----------------10-12-13-12--------|
G||------------------------------------------9-11-12-------------12--11-|
D||---------------------------------------12----------------------------|
A||---------------------------------------------------------------------|
E||---------------------------------------------------------------------|


E||--7---8--7---6--7----------------------------------------8---7------||
B||--------------------8--7--------------7--8--10--8--7-------------7--||
G||---------------------------9-------9------------------9-------------||
D||--------------------------------9-----------------------------------||
A||--------------------------------------------------------------------||
E||--------------------------------------------------------------------||
Komentari

Đeno kaže:

A akordi?????

08-05-2008 03:31

Azur kaže:

HEHEHEHEHEHE

04-10-2008 18:15

ludidzukac kaže:

Pa isto kao Evo banke cigane moj!!!!!

20-09-2009 18:08

rudica kaže:

Točno, zar je problem napisati tekst, pozicionirati akorde i dodati "tab" pa da sve bude na jednoj stranici ??? Ovako

21-09-2009 12:03

chri75 kaže:

Taman da uvežeš blok Evo banke cigane - moja mala nema mane - Ciganka sam mala (ja sam mala garava) :)

14-04-2010 09:43