Zabranjeno pusenje

guzonjin sin(uvod)

by: faLLen_angel

Pronađi akord!

Ne znaš kako odsvirati neki od akorda pjesmi guzonjin sin(uvod)? Upiši akord u tražilicu i saznaj!

Traženi akord će se prikazati ovdje

Od istog izvođača

Pregledano 6961 puta
Pregledano 97133 puta
Pregledano 3189 puta
Pregledano 72850 puta
Pregledano 9178 puta
Trebaš ritam za ovu pjesmu? Pronađi ga ovdje
Akordi/Tabovi:
                      zabranjeno pusenje
                        guzonjin sin


E||------------------12----15-13--12-------12--13--12---------------|
B||--13------15-----------------------15---------------15--13-------|
G||------12------12---------------------------------------------12--|
D||-----------------------------------------------------------------|
A||-----------------------------------------------------------------|
E||-----------------------------------------------------------------|

                                                         
E||------------------12---------15--13----12-----------------------||
B||--13------15-------------------------------------16----15---13--||
G||------12------12------------------------------------------------||
D||----------------------------------------------------------------||
A||----------------------------------------------------------------||
E||----------------------------------------------------------------||
Komentari

Zeleni_Zub kaže:

Super, hvala :thumup

23-09-2010 22:41