Bijelo Dugme

Pjesma Za Malu Pticu(uvod)

by: faLLen_angel

Pronađi akord!

Ne znaš kako odsvirati neki od akorda pjesmi Pjesma Za Malu Pticu(uvod)? Upiši akord u tražilicu i saznaj!

Traženi akord će se prikazati ovdje

Od istog izvođača

Pregledano 15744 puta
Pregledano 36872 puta
Pregledano 8228 puta
Pregledano 2616 puta
Pregledano 2585 puta
Trebaš ritam za ovu pjesmu? Pronađi ga ovdje
Akordi/Tabovi:
            bijelo dugme
              pjesma za malu pticu


E||--12--12--12--12----------------------------------------|
B||--------------------12--------------------12----12------|
G||------------------------14----14--14--14----------------|
D||----------------------------------------------------14--|
A||--------------------------------------------------------|
E||--------------------------------------------------------|

                                                                             
E||-------------------------------------------------------||\
B||-------------------------------------------------------|| \
G||------16----15--14-------------------------------------||  \ 2x
D||--14--------------------12--12--13--14-----------------||  /
A||-------------------------------------------15------14--|| /
E||-------------------------------------------------------||/
Komentari
Još nema komentara