Gibonni

Zlatne godine (uvod)

by:

Pronađi akord!

Ne znaš kako odsvirati neki od akorda pjesmi Zlatne godine (uvod)? Upiši akord u tražilicu i saznaj!

Traženi akord će se prikazati ovdje

Od istog izvođača

Pregledano 2608 puta
Pregledano 8042 puta
Pregledano 11743 puta
Pregledano 10601 puta
Pregledano 6517 puta
Trebaš ritam za ovu pjesmu? Pronađi ga ovdje
Akordi/Tabovi:
Transkripcija: rincewind - dmitrij.leppee@email.t-com.hr


UVOD
cisti ton
|---------7p4-6--7r6p4---------------------------------------|
|----------------------4-5----4p2-0--------------------------|
|-6gb8------------------------------3---6b8r6b8r6p4----------|
|---------------------------------------------------6p4-6----|
|------------------------------------------------------------|
|------------------------------------------------------------|

sa distorzijom
|------------------16---16-19b21~~~~-16h19p16----16-16~~~~~--|
|-19b21~~r19p16h19----------------------------19-------------|
|------------------------------------------------------------|
|------------------------------------------------------------|
|------------------------------------------------------------|
|------------------------------------------------------------|

|-21r19p16----16-21p19---------------------------------------|
|----------19----------21p19\16-16-19p16\14-16-*-------------|
|------------------------------------------------------------|
|------------------------------------------------------------|
|------------------------------------------------------------|
|------------------------------------------------------------|
           A.H.
|------------------------------------------------------------|
|--------4---------------------------------------------------|
|*-6-4-6---4-------------------------------------------------|
|-------------6----------------------------------------------|
|------------------------------------------------------------|
|------------------------------------------------------------|

***Od zvjezdice broj 1 do zvjezice broj dva, u trajanju od
   2 sec nemmam blage veze sto tocno odsvirati, ali improviziranje
   nije problem ak' imas muda.
Komentari

juga4ever kaže:

pretesko

09-09-2011 00:36