Osmi Putnik

mi smo majstori(solo)

by: faLLen_angel

Pronađi akord!

Ne znaš kako odsvirati neki od akorda pjesmi mi smo majstori(solo)? Upiši akord u tražilicu i saznaj!

Traženi akord će se prikazati ovdje

Od istog izvođača

Pregledano 2323 puta
Pregledano 1666 puta
Pregledano 2331 puta
Pregledano 1964 puta
Pregledano 4810 puta
Trebaš ritam za ovu pjesmu? Pronađi ga ovdje
Akordi/Tabovi:
    osmi putnik
       mi smo majstori


E||--8-8------------8--8-------------|
B||------8-8-8-----------8-8-8-------|
G||----------------------------------|
D||------------10-x-------------10-x-|
A||----------------------------------|
E||----------------------------------|

E||--8-------------------------------|
B||----8-8-8-------------------------|
G||----------------------------------|
D||----------10-x-10~-8--------------|
A||---------------------10-9-8-------|
E||----------------------------11-8~-|
                                 
E||--11b13-11b13-13r11-8---------------------------|
B||----------------------11b13--11b13--11b13r11-8--|
G||------------------------------------------------|
D||------------------------------------------------|
A||------------------------------------------------|
E||------------------------------------------------|
                                                                               
E||----------------------------------------|
B||--11h10h8h10h8----8---------------------|
G||---------------11---11h10h11h10h8h10h8--|
D||----------------------------------------|
A||----------------------------------------|
E||----------------------------------------|

E||-----------------------------------------------||
B||-----------------------------------------------||
G||-----8-----------------------------------------||
D||--10---10h9h10h9h8h9h8----8--------------------||
A||-----------------------10---10h9h10h9h10h9h10--||
E||-----------------------------------------------||
Komentari
Još nema komentara