Oktobar 1864

Carte blanche(uvod)

by: faLLen_angel

Pronađi akord!

Ne znaš kako odsvirati neki od akorda pjesmi Carte blanche(uvod)? Upiši akord u tražilicu i saznaj!

Traženi akord će se prikazati ovdje

Od istog izvođača

Pregledano 3593 puta
Pregledano 10852 puta
Pregledano 1967 puta
Pregledano 2089 puta
Pregledano 9015 puta
Trebaš ritam za ovu pjesmu? Pronađi ga ovdje
Akordi/Tabovi:
oktobar 1864
                  carte blanche


E||----------------------------------------------------------10--------|
B||------10---12---13----12--10---------------10---12----13--------10--|
G||--9----------------------------9------9-----------------------------|
D||--------------------------------------------------------------------|
A||--------------------------------------------------------------------|
E||--------------------------------------------------------------------|

                                                                       
                                                                       
E||-------------------------------------------------------------------||
B||------10---12---13----12--10--------------------------------8------||
G||--9----------------------------9-------------------------9------9--||
D||-------------------------------------12---11---12---13-------------||
A||-------------------------------------------------------------------||
E||-------------------------------------------------------------------||
Komentari
Još nema komentara