Osmi Putnik

Usne slane kao jadran plav

by:

Pronađi akord!

Ne znaš kako odsvirati neki od akorda pjesmi Usne slane kao jadran plav? Upiši akord u tražilicu i saznaj!

Traženi akord će se prikazati ovdje

Od istog izvođača

Pregledano 2701 puta
Pregledano 2410 puta
Pregledano 1539 puta
Pregledano 3082 puta
Pregledano 2385 puta
Trebaš ritam za ovu pjesmu? Pronađi ga ovdje
Akordi/Tabovi:
Transkripcija: Van Gogh (smiljcicmi@blic.net)


Uvod:
|A5 D5 A5 E5|

E|------------------------------------------------|
H|------------------------------------------------|
G|------------------------------------------------|
D|----------4-7--7--7-5-4--------------4-7--7-----|
A|------4-7---------------7-4------4-7------5--7--|
E|--5-7------------------------5-7-------------5--| 2x

prelaz:
E|----------------|
H|----------------|
G|----------------|
D|--7--5-4--------|
A|---------7-5----|
E|-------------5--|


A5
Rekoh sebi sine budi spreman
D5
i ponovi strane jezike
A5
nama donosi ljeto
            E5
jedre mlade ribice

prelaz

Noc je vrela a jutro vlazno
ja se topim kada pomislim
koliko dugih nogu
pored mene prolazi

prelaz

Ref:

A5
Ja se topim
                 D5
kada volim da se gubim
              E5         D5         A5
i kada ljubim usne slane kao Jadran plav
A5
ja se topim
                 D5
kada volim da se gubim
              E5         D5         A5
i kada ljubim usne slane kao Jadran plav, kao Jadran plav

prelaz

I rekoh radi, samo radi sine
op Poreca do Ulcinja,
nema odmora dok traje obnova,
dok traje obnova

Noc je vrela a jutro vlazno
ja se topim kada pomislim
koliko dugih nogu
pored mene prolazi

Ja se topim
kada volim da se gubim
i kada ljubim usne slane
kao Jadran plav
ja se topim
kada volim da se gubim
i kada ljubim usne slane
kao Jadran plav
kao Jadran plav


www.2akordi.net
Komentari
Još nema komentara