Osmi Putnik

Ulicna molitva

by:

Pronađi akord!

Ne znaš kako odsvirati neki od akorda pjesmi Ulicna molitva? Upiši akord u tražilicu i saznaj!

Traženi akord će se prikazati ovdje

Od istog izvođača

Pregledano 2210 puta
Pregledano 3835 puta
Pregledano 3968 puta
Pregledano 2327 puta
Pregledano 2596 puta
Trebaš ritam za ovu pjesmu? Pronađi ga ovdje
Akordi/Tabovi:
Transkripcija: Van Gogh (smiljcicmi@blic.net)



E|--------------------------|-------------------------|
H|--------------------------|-------------------------|
G|--------------------------|-------------------------|
D|--------9--------8--------|--7--------6-------8-----|
A|--7--7-----7--7-----7--7--|-----7--7--7----7-----7--|
E|--------------------------|-------------------------|

E|--------------------------|-------------------------|--------------------------|
H|--------------------------|-------------------------|--------------------------|
G|--------------------------|-------------------------|--------------------------|
D|--------7--------6--------|--5--------4-------6-----|--------5--------4--------|
A|--5--5-----5--5-----5--5--|-----5--5-------5-----5--|--3--3-----3--3-----3--3--|
E|--------------------------|-------------------------|--------------------------|

E|-------------------------|-------------------------|---------------------||
H|-------------------------|-------------------------|---------------------||
G|-------------------------|-------------------------|---------------------||
D|--3--------2-------4-----|--9----9-------9---------|---------------------||2X
A|-----3--3-------3-----3--|--7----7----7-----7------|---------------------||
E|-------------------------|---------------------10--|----------8----10----||

E5                 C5
Rodjen sam godine Gospodnje
E5                 C5
jednog vrucega ljeta
E5                 C5           D5
baz slavlja,bet sampanjca,bez banketa

E5          C5
Zivot na 20 kvadrata
E5              C5
pobjeg'o sam sa uzice
E5              C5               D5
jos kao klinac postao sam dijete ulice

C5            H5     C5            D5
glas slobode osjecam,zov divljine vuce me
C5         D5      E5
na prljave gradske ulice
C5          H5      C5        D5
cuci mrak i doziva, sapuc iz potaje
C5    D5             E5
sine, dodji pod moje okrilje

Ref:

G5 D5  E5  C5    G5  D5   E5
Ulicna molitva,sa tisuca usana
G5   D5   E5   C5
cujes li jecaj asfalta
  G5  D5   E5
sa tisuca usana...
Komentari
Još nema komentara