Osmi Putnik

Rijec za kraj

by:

Pronađi akord!

Ne znaš kako odsvirati neki od akorda pjesmi Rijec za kraj? Upiši akord u tražilicu i saznaj!

Traženi akord će se prikazati ovdje

Od istog izvođača

Pregledano 2596 puta
Pregledano 2365 puta
Pregledano 4301 puta
Pregledano 1965 puta
Pregledano 3968 puta
Trebaš ritam za ovu pjesmu? Pronađi ga ovdje
Akordi/Tabovi:
Transkripcija: Van Gogh (smiljcicmi@blic.net)


Uvod:
|H5|G5|D5|A5|
|H5 A5 G5 F#5|

E|---------------------------|---------------------------|---------------------------|
H|---------------------------|---------------------------|---------------------------|
G|---------------------------|---------------------------|---------------------------|
D|--4---------4---------2----|---------------------------|--7------4--7--------4-7---|
A|--2--0-2-4--2--2-0-2-4---0-|--5------2--5--------2-5---|--5--5-7----5--5-5-7-----4-|
E|---------------------------|--3--3-5----3--3-3-5-----3-|---------------------------|

E|---------------------------|---------------------|
H|---------------------------|---------------------|
G|---------------------------|---------------------|
D|---------------------------|---------------------|
A|--7------4--7--------4-7---|--9---------7--5--4--|
E|--5--5-7----5--5-5-7-----5-|--7--7-5-7--5--3--2--| 2x

H5             G5
Kada me zametu vjetovi
        D5
i kada stigne lisce iz
       A5
nekih davnih parkova
H5                  G5
sjecanja ko kovceg carobni
         D5           A5
ponekad zavrtim mutna pogleda

REF:

H5 A5  H5 A5   H5    D5
da bog da crna noc te pojela
A5           F#5           H5     H5 A5 G5
nesreco moja sta si mi to uradila
      H5    A5 H5
jedna rijec za kraj
A5    H5     D5
jedna rijec je dovoljna
A5           F#5           H5      H5 A5
nesreco moja sta si mi to uradila

mnoge su ladje potonule
i moje ludo oko
nikom ne migne
kada nas kada nas ne bude
ova ce pjesma
kao jecaj biti jaca od svega

da bog da crna noc te pojela
nesreco moja sta si mi to uradila
jedna rijec za kraj
jedna rijec je dovoljna
nesreco moja sta si mi to uradila

Solo:

E|-7-5-7--5-7-9--10-9-10--9-10-12--10h12p10-9h10-9-7h9p7-5-7--5--|
H|---------------------------------------------------------------|
G|---------------------------------------------------------------|
D|---------------------------------------------------------------|
A|---------------------------------------------------------------|
E|---------------------------------------------------------------|

E|-7-5-7--5-7-9--10-9-10--9-10-12-10-9---------------------------|
H|--------------------------------------12-10--------------------|
G|---------------------------------------------------------------|
D|---------------------------------------------------------------|
A|---------------------------------------------------------------|
E|---------------------------------------------------------------|
Komentari
Još nema komentara