Alien Ant Farm

Smooth Criminal

by: Guitar360

Pronađi akord!

Ne znaš kako odsvirati neki od akorda pjesmi Smooth Criminal? Upiši akord u tražilicu i saznaj!

Traženi akord će se prikazati ovdje

Od istog izvođača

Pregledano 1797 puta
Pregledano 1707 puta
Pregledano 2065 puta
Pregledano 1764 puta
Pregledano 1717 puta
Trebaš ritam za ovu pjesmu? Pronađi ga ovdje
Akordi/Tabovi:
Alien Ant Farm - Smooth Criminal

(palm mute)

e---------------------------------------------------------
B---------------------------------------------------------
G---------------------------------------------------------
D---7-------7-7-7-7-7-7-9-9----9-9-10-10----10-10-9-5--7--
A---7-------7-7-7-7-7-7-9-9----9-9-10-10----10-10-9-5--7--
E---5-------5-5-5-5-5-5-7-7----7-7--8--8-----8--8-7-3--5--
    A5                   

(First set of \"annie are you okay..you okay..you okay..annie X3)
e---------------------------------------
B---------------------------------------
G---------------------------------------
D--3-----3-3-3-3---3-3-3--3-5-5-5-3-----
A--3-----3-3-3-3---3-3-3--3-5-5-5-3-----
E--1-----1-1-1-1---1-1-1--1-3-3-3-1-----
   *           *       *          *

(preceeding part 2 where raises voice pitch..\"anny are you okay.? are okay..! are you okay anny!!\")
e-------------------------------------------------
B-------------------------------------------------
G-------------------------------------------------
D--3-----3-3-3-3---3-2-2--2-5-5----5-7------------
A--3-----3-3-3-3---3-2-2--2-5-5----5-7------------
E--1-----1-1-1-1---1-0-0--0-3-3----3-5------------
   *           *       

(finally where the band starts singing \"Anny are you okay..could you tell us..if you\'re okay..I hear the sound of ..bla bla something blood stains\" you get the point :c)
e---------------------------------------------------
B---------------------------------------------------
G---------------------------------------------------
D---7----7-7-7-7-7-7-5-5----5-5-3-3----3-3-2-2--5-7-
A---7----7-7-7-7-7-7-5-5----5-5-3-3----3-3-2-2--5-7-
E---5----5-5-5-5-5-5-3-3----3-3-1-1----1-1-0-0--3-5-


(You\'ve been hit by..E5..you\'ve been struck by..E5 E5..you\'ve been hit by..E5.. A smoooooth criminal)
e-----------------------
B-----------------------
G-----------------------
D---2----2-2---2-2--2-2-
A---2----2-2---2-2--2-2-
E---0----0-0---0-0--0-0-
    *            *


Ispred sola
e-------------------
B-------------------
G-------------------
D--7-7-7-7-7-7-7-7--
A--7-7-7-7-7-7-7-7--
E--5-5-5-5-5-5-5-5--
                 *


Slide s trzalicom na 5 i 6 žici... Prvo polako, a onda brzati koliko možeš brže.

Here\'s the SOLO my version
e-----------------------------------------------
B-----------------------------------------------
G-----------------------------------------------
D---7--7--7p9h10p9h7p5---5-7-7-7----------------
A-----------------------------------------------
E-0---------------------------------------------
  *         


VERSE ALTERNATIVE (played at the very end)
(palm muted)
e-----------------------------------------------
B-----------------------------------------------
G-----------------------------------------------
D---7----7-7-7-7-7-5-5----5-5-3-3----3-3-2-5--7-
A---7----7-7-7-7-7-5-5----5-5-3-3----3-3-2-5--7-
E---5----5-5-5-5-5-3-3----3-3-1-1----1-1-0-3--5-



OKAY here\'s A summary of how to play this song:
------------------------------------------------
Scream! on A5
1. VERSE        x4
2. (sing) VERSE x4
3. CHORUS-1 x3    (low pitch anny)
4. CHORUS-CONT
5. CHORUS-2 x4    (anny are you ok..would you tell us..)
6. CHORUS-1 x3    (high pitch anny)
7. CHORUS-3
8. (no sing) VERSE x2
9. (sing) VERSE x2
10. CHORUS-1 x3
11. CHORUS-CONT
12. CHORUS-2 x4
13. CHORUS-1
14. CHORUS-3
  ---(play VERSE in background if a second guitar)---
15. PRE SOLO  !!pic slide for 7 seconds!!
16. SOLO   x8      (Fast)  da-do dat do-dat-dat Aaaaooww!
17. CHORUS-2 x4
18. CHORUS-2 x4  (but sing \"anny are you ok\" low pitch)
19. VERSE x2
20. VERSE ALT
21. VERSE
Komentari

didibaum kaže:

:thrasher

11-12-2008 17:52