Divlje Jagode

Jedina Moja (uvod i solo)

by: stratocaster

Pronađi akord!

Ne znaš kako odsvirati neki od akorda pjesmi Jedina Moja (uvod i solo)? Upiši akord u tražilicu i saznaj!

Traženi akord će se prikazati ovdje

Od istog izvođača

Pregledano 6813 puta
Pregledano 30637 puta
Pregledano 6811 puta
Pregledano 31338 puta
Pregledano 28436 puta
Trebaš ritam za ovu pjesmu? Pronađi ga ovdje
Akordi/Tabovi:
Uvod:
E-----------------------------------------------------------------
B-----------8p10b12-10b12r10----8-10----------7p8b10--8b10r8~~----7-8-
G---7/9---------------------------------7-7-------------------------
D-----------------------------------------------------------------
A-----------------------------------------------------------------
E-----------------------------------------------------------------

E-----------------------------------------------------------------
B---------8p10b12-10b12r10----8-10----------10h8-7----7-----------
G---7/9-------------------------------7-7----------7-----9
D-----------------------------------------------------------------
A--------------------------------------------------------------
E--------------------------------------------------------------

SOLO:
E-----------------------------------------------------------------
B--12h15b17~-------------------12h13p12--13-12-10---12p10----------
G----------------------14b16--9---------------------------------------------12-11-12-
D-----------------------------------------------------------------
A-----------------------------------------------------------------
E-----------------------------------------------------------------

E------------------------15b17r15--15b17-12-------------------------
B-------------------12--------------------------------13---12-13-15---10-12-13
G--11--7-11-9-----------------------------------------------------
D-----------------------------------------------------------------
A-----------------------------------------------------------------
E-----------------------------------------------------------------

E-----------------------------------------------------------------
B--8-10-12--7-8-10--7---------------------------------------------
G-----------------------------7-9------9--9-7--------------9-9b11------------
D---------------------------------------------------9h10p9-----------9h10p9----
A-----------------------------------------------------------------
E-----------------------------------------------------------------

E-----------------------------------------------------------------
B-----------------------------------------------------------------
G-----------------------------------------------------9-7----------------------
D--9-10-12--12-10-9----------------------------------------10-9h10p9------------
A----------------------------10-7---9-10-9-7-------------------------------
E-----------------------------------------------------------------

E-----------------------------------------------------------------
B-----------------------------------------------------------------
G---9-9b11--------------------------------------------------------
D----------------9----9-10-12--12-10-9----------------------------------
A------------------------------------------------10-7---9-10-9-7------------------
Komentari

berth kaže:

intro:


GITARA 1


E-----0--|-----0--|-----0--|-----0--|
B-------0|-------0|-------0|-------0|
G---0----|---2----|---4----|---5----|
D-2------|-4------|-5------|-7------|
A--------|--------|--------|--------|
E--------|--------|--------|--------|
| | |
GITARA 2 | | |
E-----0--|-----0--|-----0--|-----0--|
B----0---|----0---|----0---|----0---|
G---0----|---2----|---4----|---5----|
D-2------|-4------|-5------|-7------|
A--------|--------|--------|--------|
E--------|--------|--------|--------|

14-01-2009 22:57

amirdin kaže:

3 akusticne i klavijature imaju, tab cu postaviti kasnije

04-02-2009 00:31

KARLO-FENDER kaže:

:bash:bangheadx:stop:worthy2:suicide

08-02-2009 15:23

Heser kaže:

:thrasher

12-02-2009 14:41

edman kaže:

nista se ne razumije :cray

21-02-2009 23:01

saldin kaže:

ja ne shvatam neke ljude pa kako se ne razumje lepo ti stoje brojevi i slova
ako i dalje ne razumes onda baci gitaru nisi ti za to

27-10-2009 18:14

taratumba kaže:

tako je saladin

03-11-2009 14:46

Richie_king kaže:

e ljudi... aktivno sviram 3 sedmice,tako da sam pocetnik... ja znam svirat akorde,i citat tabove... akorde josh uvjek vjezbam brzo izmjenjivat ,dok mi tabovi neidu nikako... ako moze mala pomoc za tabove... i pojasnjenje za ova slova pored brojeva...

05-12-2009 00:57

GodOfWar1 kaže:

Richie_king...slova ti gore označavaju ŽICZ a brojevi na koje POLJE hvataš žicu..

primjer od odozgo:


E-----0--|-----0--|-----0--|-----0--|
B-------0|-------0|-------0|-------0|
G---0----|---2----|---4----|---5----|
D-2------|-4------|-5------|-7------|
A--------|--------|--------|--------|
E--------|--------|--------|--------|

znači...E i B (H) žice sa 0 (nula) oznakom,njih NE SVIRAŠ...znači počinješ sa D žice DRUGO POLJE,kad dođeš na D žici na četvrto polje onda kažiprst stavljaš na G žicu DRUGO POLJE (i sviraš D i G jednu po jednu) i tako se spuštaš kao što ti ovdje piše..znači,ovdje su u pitanju samo DVIJE žice G i D...brojevi označavaju polja na vratu gitare...nadam se da sam pomoga nešta :)

17-12-2009 03:09

BOKYMAN kaže:

super je odlicno bravooooooo

04-02-2010 21:22

emil-chelsea kaže:

sta ovo...8p10b12 i ovo 7/9 znaci....

21-02-2010 03:57

haris kaže:

Ovo gore su TABLATURE... http://www.gitare.info/page.php?id=298&comments=1#c10597

21-02-2010 15:10

GodOfWar1 kaže:

@ emil-chelsea......8p10b12 i ovo 7/9----> ta slova ti označavu p->pull off,b-->Unison Bend i ono 7/9-->slide--> klizi s eto 7 na 9 polje iste žice...ugl evo ti stranica gdje ti sve piše da ne prevodim i ne zajebajem se:
http://www.guitar4ever.net/guitar-tablature.html

nadam se dae to pomoglo..! :)

18-03-2010 03:08

BonJovi_ fan kaže:

Detaljno sam pročitala objašnjenje za TAB-ove, i jasno mi je, ali sada kad pokušam da sviram, malo je zbunjujuće. Nije mi jasno 8p10b12...Kako da odsviram po ( dignem prst sa 10. na 8. polje?, kako onda uraditi band, prst mi je i dalje na 8. ; je li ga vraćam na 10. da bi uradila band do 12. ????? Mislila sam da bi za ovo trebalo biti 4 broja (4 polja; 2 za "p" , 2 za "b") .........Vjerovatno bi se ovo lahko svatilo da ima video lekcija....

Da, i u objašnjenju mi nije baš slikovit ni rake ("Udarac preko žica koje su zaglušene prstima lijeve ruke") ...držim prst preko tog polja da ublažim trenje žici ili..........????

21-06-2010 15:43

Haccerra kaže:

Moze li mi neko objasniti kako je ovo moguce: 8p10 10h8 i slicno :)? Koliko ja znam pull off je otpustanje zice to znaci da mora biti nota iza a hammer da je prikucavanje zice to znaci da nota mora biti ispred da bi se cula...

02-08-2010 16:37

haris kaže:

Greška :D

02-08-2010 17:44

Haccerra kaže:

Haha, pa to sam i ja pomislio ali ko zna mozda je moguce, nikada ne mo's sve znati... Sada sam poceo da skidam solo i to pa cu vam u roku od par dana ako ne uspem sada poslati parvilno kako se sve svira :) Pozz :)

06-08-2010 17:15

rocker587 kaže:

Ljudi solo je u potpunosti točan, i ovaj uvodni solo isto. Ko vam je kriv što n znate čitat tablature. Ima tu još nekih sitnih varijacija koje se uoče kad se pažljivo sluša pjesma, al ovaj tab u potpunosti zadovoljava kriterije.

8h10b12 znači da sviraš 8 polje na žici pa hammer on na 10 (na par mjesta krivo piše 8p10 umjesto 8h10) i onda 10 bendaš da dobiješ ton kao na 12 polju.

04-06-2011 16:48