Bijelo Dugme

Te Noci Kad Umrem(solo)

by: faLLen_angel

Pronađi akord!

Ne znaš kako odsvirati neki od akorda pjesmi Te Noci Kad Umrem(solo)? Upiši akord u tražilicu i saznaj!

Traženi akord će se prikazati ovdje

Od istog izvođača

Pregledano 13715 puta
Pregledano 18217 puta
Pregledano 3583 puta
Pregledano 6316 puta
Pregledano 2608 puta
Trebaš ritam za ovu pjesmu? Pronađi ga ovdje
Akordi/Tabovi:
te noci kad umrem

E||------------------------------------|
B||----------------4--6r-4-------------|
G||------------3-5---------5---5-------|
D||----------5-------------------------|
A||------------------------------------|
E||------------------------------------|
                                               
E||-11--10--11--13---10----------------|
B||----------------------13-----11h9-8-|
G||------------------------------------|
D||------------------------------------|
A||------------------------------------|
E|-------------------------------------|
                                                       
E||------------------------------------|
B||-6h8h6------------------------------|
G||-------8--8h10h8-7--7h8h7-5---7-5---|
D||----------------------------------8-|
A||------------------------------------|
E||------------------------------------|
                                                                             
E||-----11--10--11--13----10--20~-----||
B||-----------------------------------||
G||-----------------------------------||
D||-----------------------------------||
A||-----------------------------------||
E||-----------------------------------||
Komentari
Još nema komentara