Divlje Jagode

Konji

by: stratocaster

Pronađi akord!

Ne znaš kako odsvirati neki od akorda pjesmi Konji? Upiši akord u tražilicu i saznaj!

Traženi akord će se prikazati ovdje

Od istog izvođača

Pregledano 6879 puta
Pregledano 5320 puta
Pregledano 23313 puta
Pregledano 5029 puta
Pregledano 348097 puta
Trebaš ritam za ovu pjesmu? Pronađi ga ovdje
Akordi/Tabovi:
Intro: C#5-B5-C#5, B5, B5,
A5-G#5-A5, F#, B5 3x
C#5-B5-C#5... 1x

Oluja nad stepom svud, gromovi i strah B5,C#5,B5,C#5,
To je divljih konja kas i plameni dah B5,C#5,A5,B5,
C#5,
Krvava ih pjena sad obuzela sve B5,C#5,B5,C#5,
Grive se vijore cak tu do neba sve. B5,C#5, A5...

Refren:
Konji vatreni C#5, B5, C#5, C#5, B5, C#5,
Konji vatreni C#5, B5, C#5, C#5, B5, C#5,
Vatreni A5
Divlji konji. C#5

Instrumental: C#5, D#5, E5, D#5, E5, F#5, G#5, F#5,
E5, B5 2x G#5;

Pokrije ih nocu mir i zvjezdani san
Al sv vihor konji tu cim osvane dan
Nebeski se trese svod od kopita svih
Ne mogu ih pratiti ni vjetrovi.


Refren:
Konji vatreni C#5, B5, C#5, C#5, B5, C#5,
Konji vatreni C#5, B5, C#5, C#5, B5, C#5,
Vatreni A5
Divlji konji. C#5

C#5E---------------------------------------|
H----------------------7--9-------------|
G--6------8--9-------9--------8---6--4--| x2
D--------------6------------------------|
A---------------------------------------|
E---------------------------------------|

E---------------------------------------|
H---------------------------------------|
G---------------------------------------|
D—6h7p6---4/6---------------------------|
A---------------------------------------|
E---------------------------------------|

E---------------------------------------|
H----------------------7--9-------------|
G--6------8--9-------9--------8---6--4--| x2
D--------------6------------------------|
A---------------------------------------|
E---------------------------------------|

E---------------------------------------|
H---------------------------------------|
G---------------------------------------|
D—6h7p6---4/6---------------------------|
A---------------------------------------|
E---------------------------------------|

E---------------------------------------|
H---15~~~~~~~~~~~~~~~-------------------|
G---------------------------------------|
D—-----------------------9--------------|
A---------------------------------------|
E---------------------------------------|
                 With trem. Bar

E---------------------------------------|
H---------------------------------------|
G-14br—14br---14br---14br---------------|
D—--------------------------------------|
A---------------------------------------|
E---------------------------------------|
bend release za efekt rzanja

E---------------------------------------|
H---------------------------------------|
G--------9---8—6h8p6/4/6----------------|
D—--------------------------------------|
A---------------------------------------|
E-12/0----------------------------------|

E----9~~~~~~~~10~~~~~~12~~~~~~----------|
H---------------------------------------|
G---------------------------------------|
D—--------------------------------------|
A---------------------------------------|
E---------------------------------------|

E----------------------------------------|
H----------------------------------------|
G----------------------------------------| 2x
D—6h7p6---4/6----------------------------|
A----------------------------------------|
E----------------------------------------|

Refren:
Konji vatreni C#5, B5, C#5, C#5, B5, C#5,
Konji vatreni C#5, B5, C#5, C#5, B5, C#5,
Konji vatreni C#5, B5, C#5, C#5, B5, C#5,
Vatreni A5
Divlji konji.
Komentari
Još nema komentara