Bijelo Dugme

Šta Je Tu Je(tema)

by: faLLen_angel

Pronađi akord!

Ne znaš kako odsvirati neki od akorda pjesmi Šta Je Tu Je(tema)? Upiši akord u tražilicu i saznaj!

Traženi akord će se prikazati ovdje

Od istog izvođača

Pregledano 7973 puta
Pregledano 119836 puta
Pregledano 2845 puta
Pregledano 12174 puta
Pregledano 12133 puta
Trebaš ritam za ovu pjesmu? Pronađi ga ovdje
Akordi/Tabovi:
ste je tu je


E||-------------------------------------|
B||-------------------------------------|
G||-------------------------------------|
D||-------------------------------------|
A||--10-10--12------10-10-12------10-10-|
E||-------------------------------------|


                                         
E||-------------------------------------|
B||-------------------------------------|
G||-------------------------------------|
D||--------12-10-10---------------------|
A||--12-14----------14-12-10-12---10-10-|
E||-------------------------------------|


                                         
E||-------------------------------------|
B||-------------------------------------|
G||-------------------------------------|
D||-------------------12-10-10----------|
A||--12---10-12-12-14----------14-12-10-|
E||-------------------------------------|


                                                   
E||-----------------------------------------------------|
B||-----------------------------------------------------|
G||-----------------------------------------------------|
D||--10----12-10-10----------10----12-10-10-------------|
A||-----14----------14-12-10----14----------14-12-10----|
E||-----------------------------------------------------|


                                                                       
E||-----------------------------------------------------||
B||-----------------------------------------------------||
G||-----------------------------------------------------||
D||--10----12-10-10----12-10-10----12-10-10-------------||
A||-----14----------14----------14----------14-12-10-12-||
E||-----------------------------------------------------||
Komentari
Još nema komentara