Oliver Dragojević

Ljubav Je Tvoja Kao Vino(tema)

by: faLLen_angel

Pronađi akord!

Ne znaš kako odsvirati neki od akorda pjesmi Ljubav Je Tvoja Kao Vino(tema)? Upiši akord u tražilicu i saznaj!

Traženi akord će se prikazati ovdje

Od istog izvođača

Pregledano 5743 puta
Pregledano 65540 puta
Pregledano 423 puta
Pregledano 30089 puta
Pregledano 43671 puta
Trebaš ritam za ovu pjesmu? Pronađi ga ovdje
Akordi/Tabovi:
Ljubav je tvoja kao vino                             


                                                                       
E||------------7----7--|--7--5--5--5--------7--|--7--5--5--5--------5--|
B||--------------------|-----------------------|-----------------------|
G||--------------------|-----------------------|-----------------------|
D||--------------------|-----------------------|-----------------------|
A||--------------------|-----------------------|-----------------------|
E||--------------------|-----------------------|-----------------------|


                                                                       
E||--5------------------5--|--7----------7----7--|--7--5--5--5------7--|
B||-----8----------8-------|---------------------|---------------------|
G||-----------7------------|---------------------|---------------------|
D||------------------------|---------------------|---------------------|
A||------------------------|---------------------|---------------------|
E||------------------------|---------------------|---------------------|


                                                                 
E||--7--5--5--5-----7-------|
B||----------------------8--|
G||-------------------------|
D||-------------------------|
A||-------------------------|
E||-------------------------|
Komentari
Još nema komentara