Oliver Dragojević

Dome Moj(solo)

by: fallen_angel

Pronađi akord!

Ne znaš kako odsvirati neki od akorda pjesmi Dome Moj(solo)? Upiši akord u tražilicu i saznaj!

Traženi akord će se prikazati ovdje

Od istog izvođača

Pregledano 17491 puta
Pregledano 66338 puta
Pregledano 5568 puta
Pregledano 8510 puta
Pregledano 5515 puta
Trebaš ritam za ovu pjesmu? Pronađi ga ovdje
Akordi/Tabovi:
dome moj

                                                                       
E||--------9-10-|--12--12--12----12-|--12--9-----9-10-|
B||-------------|-------------------|-----------------|
G||-------------|-------------------|-----------------|
D||-------------|-------------------|-----------------|
A||-------------|-------------------|-----------------|
E||-------------|-------------------|-----------------|


                                                                         
E||--12--12--12--12-|--10-------9-|--10--10--10---10--|
B||-----------------|--------12---|-------------------|
G||-----------------|-------------|-------------------|
D||-----------------|-------------|-------------------|
A||-----------------|-------------|-------------------|
E||-----------------|-------------|-------------------|


                                                                             
E||--10------------9-|--10--10--12---12--|--12-------||
B||------12-----12---|-------------------|-----------||
G||------------------|-------------------|-----------||
D||------------------|-------------------|-----------||
A||------------------|-------------------|-----------||
E||------------------|-------------------|-----------||
Komentari
Još nema komentara