Srebrna Krila

Ljubicu Te 8 Sati(uvod)

by: faLLen_angel

Pronađi akord!

Ne znaš kako odsvirati neki od akorda pjesmi Ljubicu Te 8 Sati(uvod)? Upiši akord u tražilicu i saznaj!

Traženi akord će se prikazati ovdje

Od istog izvođača

Pregledano 5942 puta
Pregledano 14532 puta
Pregledano 268 puta
Pregledano 3889 puta
Pregledano 2526 puta
Trebaš ritam za ovu pjesmu? Pronađi ga ovdje
Akordi/Tabovi:
ljubit cu te 8 sati
                                                         
E||--13----11----10----------|--------------------------|
B||--------------------13----|--11----------------------|
G||--------------------------|--------13----11----10----|
D||--------------------------|--------------------------|
A||--------------------------|--------------------------|
E||--------------------------|--------------------------|


                                                                       
E||-------------------------------|---------------------------18-20-23-|
B||------11---10--11--10--11--10--|--13--------------18-20-21----------|
G||--10---------------------------|------13--12--10--------------------|
D||-------------------------------|------------------------------------|
A||-------------------------------|------------------------------------|
E||-------------------------------|------------------------------------|
Komentari
Još nema komentara