Mišo Kovač

Od kavane do kavane(tema)

by: faLLen_angel

Pronađi akord!

Ne znaš kako odsvirati neki od akorda pjesmi Od kavane do kavane(tema)? Upiši akord u tražilicu i saznaj!

Traženi akord će se prikazati ovdje

Od istog izvođača

Pregledano 32619 puta
Pregledano 26696 puta
Pregledano 20255 puta
Pregledano 448 puta
Pregledano 29010 puta
Trebaš ritam za ovu pjesmu? Pronađi ga ovdje
Akordi/Tabovi:
OD KAVANE DO kavane                                 


                                                                       
E||-----------------|---7---7-8---7--7--------|-------------|
B||-----8----8---10-|---------------------10--|--10---------|
G||-----------------|-------------------------|-------------|
D||-----------------|-------------------------|-------------|
A||-----------------|-------------------------|-------------|
E||-----------------|-------------------------|-------------|


                                                         
E||--------7-8--10---10--10--10---|-----------7-8------7----|
B||---10--------------------------|------10-----------------|
G||-------------------------------|-------------------------|
D||-------------------------------|-------------------------|
A||-------------------------------|-------------------------|
E||-------------------------------|-------------------------|


                                                         
E||-------------------7--8-|----10---11-12---12--12-12------|
B||----------8-7-8-10------|--------------------------------|
G||------------------------|--------------------------------|
D||------------------------|--------------------------------|
A||------------------------|--------------------------------|
E||------------------------|--------------------------------|


                                                       
E||------------12---10---10--10---|------8---7--------------|
B||-------------------------------|-------------------------|
G||-------12----------------------|-------------------------|
D||-------------------------------|-------------------------|
A||-------------------------------|-------------------------|
E||-------------------------------|-------------------------|


                                                                               
E||----------------7---8---7--|-----7-----------------------|
B||--8----8---10--------------|---------10---10-------------|
G||---------------------------|-----------------------------|
D||---------------------------|-----------------------------|
A||---------------------------|-----------------------------|
E||---------------------------|-----------------------------|
Komentari
Još nema komentara